  0
SECTION
  2
HEADER
  9
$ACADVER
  1
AC1015
  9
$ACADMAINTVER
 70
     6
  9
$DWGCODEPAGE
  3
ANSI_1252
  9
$INSBASE
 10
0.0
 20
0.0
 30
0.0
  9
$EXTMIN
 10
1.000000E+20
 20
1.000000E+20
 30
1.000000E+20
  9
$EXTMAX
 10
-1.000000E+20
 20
-1.000000E+20
 30
-1.000000E+20
  9
$LIMMIN
 10
0.0
 20
0.0
  9
$LIMMAX
 10
0.0
 20
0.0
  9
$ORTHOMODE
 70
     0
  9
$REGENMODE
 70
     1
  9
$FILLMODE
 70
     1
  9
$QTEXTMODE
 70
     0
  9
$MIRRTEXT
 70
     1
  9
$LTSCALE
 40
1.0
  9
$ATTMODE
 70
     1
  9
$TEXTSIZE
 40
0.2
  9
$TRACEWID
 40
0.05
  9
$TEXTSTYLE
  7
Standard
  9
$CLAYER
  8
0
  9
$CELTYPE
  6
Continuous
  9
$CECOLOR
 62
   256
  9
$CELTSCALE
 40
1.0
  9
$DISPSILH
 70
     0
  9
$DIMSCALE
 40
1.0
  9
$DIMASZ
 40
0.18
  9
$DIMEXO
 40
0.0625
  9
$DIMDLI
 40
0.38
  9
$DIMRND
 40
0.0
  9
$DIMDLE
 40
0.0
  9
$DIMEXE
 40
0.18
  9
$DIMTP
 40
0.0
  9
$DIMTM
 40
0.0
  9
$DIMTXT
 40
0.18
  9
$DIMCEN
 40
0.09
  9
$DIMTSZ
 40
0.0
  9
$DIMTOL
 70
     0
  9
$DIMLIM
 70
     0
  9
$DIMTIH
 70
     1
  9
$DIMTOH
 70
     1
  9
$DIMSE1
 70
     0
  9
$DIMSE2
 70
     0
  9
$DIMTAD
 70
     0
  9
$DIMZIN
 70
     0
  9
$DIMBLK
  1

  9
$DIMASO
 70
     1
  9
$DIMSHO
 70
     1
  9
$DIMPOST
  1

  9
$DIMAPOST
  1

  9
$DIMALT
 70
     0
  9
$DIMALTD
 70
     2
  9
$DIMALTF
 40
25.4
  9
$DIMLFAC
 40
1.0
  9
$DIMTOFL
 70
     0
  9
$DIMTVP
 40
0.0
  9
$DIMTIX
 70
     0
  9
$DIMSOXD
 70
     0
  9
$DIMSAH
 70
     0
  9
$DIMBLK1
  1

  9
$DIMBLK2
  1

  9
$DIMSTYLE
  2
Standard
  9
$DIMCLRD
 70
     0
  9
$DIMCLRE
 70
     0
  9
$DIMCLRT
 70
     0
  9
$DIMTFAC
 40
1.0
  9
$DIMGAP
 40
0.09
  9
$DIMJUST
 70
     0
  9
$DIMSD1
 70
     0
  9
$DIMSD2
 70
     0
  9
$DIMTOLJ
 70
     1
  9
$DIMTZIN
 70
     0
  9
$DIMALTZ
 70
     0
  9
$DIMALTTZ
 70
     0
  9
$DIMUPT
 70
     0
  9
$DIMDEC
 70
     4
  9
$DIMTDEC
 70
     4
  9
$DIMALTU
 70
     2
  9
$DIMALTTD
 70
     2
  9
$DIMTXSTY
  7
Standard
  9
$DIMAUNIT
 70
     0
  9
$DIMADEC
 70
     0
  9
$DIMALTRND
 40
0.0
  9
$DIMAZIN
 70
     0
  9
$DIMDSEP
 70
     0
  9
$DIMATFIT
 70
     3
  9
$DIMFRAC
 70
     0
  9
$DIMLDRBLK
  1

  9
$DIMLUNIT
 70
     2
  9
$DIMLWD
 70
     0
  9
$DIMLWE
 70
     0
  9
$DIMTMOVE
 70
     0
  9
$LUNITS
 70
     2
  9
$LUPREC
 70
     4
  9
$SKETCHINC
 40
0.1
  9
$FILLETRAD
 40
0.0
  9
$AUNITS
 70
     0
  9
$AUPREC
 70
     0
  9
$MENU
  1
acad
  9
$ELEVATION
 40
0.0
  9
$PELEVATION
 40
0.0
  9
$THICKNESS
 40
0.0
  9
$LIMCHECK
 70
     0
  9
$CHAMFERA
 40
0.0
  9
$CHAMFERB
 40
0.0
  9
$CHAMFERC
 40
0.0
  9
$CHAMFERD
 40
0.0
  9
$SKPOLY
 70
     0
  9
$TDCREATE
 40
0.000000000
  9
$TDUCREATE
 40
0.000000000
  9
$TDUPDATE
 40
0.000000000
  9
$TDUUPDATE
 40
0.000000000
  9
$TDINDWG
 40
0.0000000000
  9
$TDUSRTIMER
 40
0.0000000000
  9
$USRTIMER
 70
     1
  9
$ANGBASE
 50
0.0
  9
$ANGDIR
 70
     0
  9
$PDMODE
 70
     0
  9
$PDSIZE
 40
0.0
  9
$PLINEWID
 40
0.0
  9
$SPLFRAME
 70
     0
  9
$SPLINETYPE
 70
     6
  9
$SPLINESEGS
 70
     8
  9
$HANDSEED
  5
3B4
  9
$SURFTAB1
 70
     6
  9
$SURFTAB2
 70
     6
  9
$SURFTYPE
 70
     6
  9
$SURFU
 70
     6
  9
$SURFV
 70
     6
  9
$UCSBASE
  2

  9
$UCSNAME
  2

  9
$UCSORG
 10
0.0
 20
0.0
 30
0.0
  9
$UCSXDIR
 10
1.0
 20
0.0
 30
0.0
  9
$UCSYDIR
 10
0.0
 20
1.0
 30
0.0
  9
$UCSORTHOREF
  2

  9
$UCSORTHOVIEW
 70
     0
  9
$UCSORGTOP
 10
0.0
 20
0.0
 30
0.0
  9
$UCSORGBOTTOM
 10
0.0
 20
0.0
 30
0.0
  9
$UCSORGLEFT
 10
0.0
 20
0.0
 30
0.0
  9
$UCSORGRIGHT
 10
0.0
 20
0.0
 30
0.0
  9
$UCSORGFRONT
 10
0.0
 20
0.0
 30
0.0
  9
$UCSORGBACK
 10
0.0
 20
0.0
 30
0.0
  9
$PUCSBASE
  2

  9
$PUCSNAME
  2

  9
$PUCSORG
 10
0.0
 20
0.0
 30
0.0
  9
$PUCSXDIR
 10
1.0
 20
0.0
 30
0.0
  9
$PUCSYDIR
 10
0.0
 20
1.0
 30
0.0
  9
$PUCSORTHOREF
  2

  9
$PUCSORTHOVIEW
 70
     0
  9
$PUCSORGTOP
 10
0.0
 20
0.0
 30
0.0
  9
$PUCSORGBOTTOM
 10
0.0
 20
0.0
 30
0.0
  9
$PUCSORGLEFT
 10
0.0
 20
0.0
 30
0.0
  9
$PUCSORGRIGHT
 10
0.0
 20
0.0
 30
0.0
  9
$PUCSORGFRONT
 10
0.0
 20
0.0
 30
0.0
  9
$PUCSORGBACK
 10
0.0
 20
0.0
 30
0.0
  9
$USERI1
 70
 12345
  9
$USERI2
 70
     0
  9
$USERI3
 70
     0
  9
$USERI4
 70
     0
  9
$USERI5
 70
     0
  9
$USERR1
 40
0.0
  9
$USERR2
 40
0.0
  9
$USERR3
 40
0.0
  9
$USERR4
 40
0.0
  9
$USERR5
 40
0.0
  9
$WORLDVIEW
 70
     1
  9
$SHADEDGE
 70
     3
  9
$SHADEDIF
 70
    70
  9
$TILEMODE
 70
     0
  9
$MAXACTVP
 70
    64
  9
$PINSBASE
 10
0.0
 20
0.0
 30
0.0
  9
$PLIMCHECK
 70
     0
  9
$PEXTMIN
 10
-824.93599
 20
-427.000026
 30
0.0
  9
$PEXTMAX
 10
896.93599
 20
637.000026
 30
0.0
  9
$PLIMMIN
 10
0.0
 20
0.0
  9
$PLIMMAX
 10
12.0
 20
9.0
  9
$UNITMODE
 70
     0
  9
$VISRETAIN
 70
     0
  9
$PLINEGEN
 70
     1
  9
$PSLTSCALE
 70
     0
  9
$TREEDEPTH
 70
  3020
  9
$CMLSTYLE
  2
Standard
  9
$CMLJUST
 70
     0
  9
$CMLSCALE
 40
1.0
  9
$PROXYGRAPHICS
 70
     0
  9
$MEASUREMENT
 70
     0
  9
$CELWEIGHT
370
     0
  9
$ENDCAPS
280
     0
  9
$JOINSTYLE
280
     0
  9
$LWDISPLAY
290
     0
  9
$INSUNITS
 70
     0
  9
$HYPERLINKBASE
  1

  9
$STYLESHEET
  1

  9
$XEDIT
290
     1
  9
$CEPSNTYPE
380
     0
  9
$PSTYLEMODE
290
     1
  9
$FINGERPRINTGUID
  2

  9
$VERSIONGUID
  2

  9
$EXTNAMES
290
     1
  9
$PSVPSCALE
 40
0.0
  0
ENDSEC
  0
SECTION
  2
CLASSES
  0
CLASS
  1
LWPOLYLINE
  2
AcDbPolyline
  3
AutoCAD 2000
 90
        0
280
     0
281
     1
  0
CLASS
  1
IMAGE
  2
AcDbRasterImage
  3
ISM
 90
      127
280
     0
281
     1
  0
CLASS
  1
OLE2FRAME
  2
AcDbOle2Frame
  3
AutoCAD 2000
 90
        0
280
     0
281
     1
  0
CLASS
  1
HATCH
  2
AcDbHatch
  3
AutoCAD 2000
 90
        0
280
     0
281
     1
  0
CLASS
  1
DICTIONARYVAR
  2
AcDbDictionaryVar
  3
AutoCAD 2000
 90
        0
280
     0
281
     0
  0
CLASS
  1
RASTERVARIABLES
  2
AcDbRasterVariables
  3
ISM
 90
        0
280
     0
281
     0
  0
CLASS
  1
IMAGEDEF
  2
AcDbRasterImageDef
  3
ISM
 90
        0
280
     0
281
     0
  0
CLASS
  1
IMAGEDEF_REACTOR
  2
AcDbRasterImageDefReactor
  3
ISM
 90
        1
280
     0
281
     0
  0
CLASS
  1
IDBUFFER
  2
AcDbIdBuffer
  3
AutoCAD 2000
 90
        0
280
     0
281
     0
  0
CLASS
  1
SPATIAL_FILTER
  2
AcDbSpatialFilter
  3
AutoCAD 2000
 90
        0
280
     0
281
     0
  0
CLASS
  1
XRECORD
  2
AcDbXrecord
  3
AutoCAD 2000
 90
        0
280
     0
281
     0
  0
CLASS
  1
SORTENTSTABLE
  2
AcDbSortentsTable
  3
AutoCAD 2000
 90
        0
280
     0
281
     0
  0
CLASS
  1
LAYER_INDEX
  2
AcDbLayerIndex
  3
AutoCAD 2000
 90
        0
280
     0
281
     0
  0
CLASS
  1
SPATIAL_INDEX
  2
AcDbSpatialIndex
  3
AutoCAD 2000
 90
        0
280
     0
281
     0
  0
CLASS
  1
OBJECT_PTR
  2
CAseDLPNTableRecord
  3
"ASE-LPNTableRecord"
 90
        1
280
     0
281
     0
  0
CLASS
  1
LAYOUT
  2
AcDbLayout
  3
AutoCAD 2000
 90
        0
280
     0
281
     0
  0
CLASS
  1
PLOTSETTINGS
  2
AcDbPlotSettings
  3
AutoCAD 2000
 90
        0
280
     0
281
     0
  0
CLASS
  1
ACDBDICTIONARYWDFLT
  2
AcDbDictionaryWithDefault
  3
AutoCAD 2000
 90
        0
280
     0
281
     0
  0
CLASS
  1
ACDBPLACEHOLDER
  2
AcDbPlaceHolder
  3
AutoCAD 2000
 90
        0
280
     0
281
     0
  0
CLASS
  1
VBA_PROJECT
  2
AcDbVbaProject
  3
acadvba
 90
        0
280
     0
281
     0
  0
CLASS
  1
WIPEOUT
  2
AcDbWipeout
  3
WipeOut|AutoCAD Express Tool|expresstools@autodesk.com
 90
      127
280
     0
281
     1
  0
CLASS
  1
WIPEOUTVARIABLES
  2
AcDbWipeoutVariables
  3
WipeOut|AutoCAD Express Tool|expresstools@autodesk.com
 90
        0
280
     0
281
     0
  0
CLASS
  1
RTEXT
  2
RText
  3
RText|AutoCAD Express Tool|expresstools@autodesk.com
 90
        0
280
     0
281
     1
  0
CLASS
  1
ARCALIGNEDTEXT
  2
AcDbArcAlignedText
  3
ATEXT|AutoCAD Express Tool|expresstools@autodesk.com
 90
        0
280
     0
281
     1
  0
ENDSEC
  0
SECTION
  2
TABLES
  0
TABLE
  2
VPORT
  5
7
100
AcDbSymbolTable
 70
     1
  0
VPORT
  5
15
100
AcDbSymbolTableRecord
100
AcDbViewportTableRecord
  2
*ACTIVE
 70
     0
 10
0.0
 20
0.0
 11
1.0
 21
1.0
 12
36.000031
 22
104.999985
 13
0.0
 23
0.0
 14
1.0
 24
1.0
 15
0.0
 25
0.0
 16
0.0
 26
0.0
 36
1.0
 17
0.0
 27
0.0
 37
0.0
 40
1064.000031
 41
0.688564
 42
50.0
 43
0.0
 44
0.0
 50
0.0
 51
0.0
 71
     0
 72
   100
 73
     1
 74
     1
 75
     0
 76
     0
 77
     0
 78
     0
281
     0
 65
     0
110
0.0
120
0.0
130
0.0
111
1.0
121
0.0
131
0.0
112
0.0
122
1.0
132
0.0
345
0
346
0
 79
     0
146
0.0
  0
ENDTAB
  0
TABLE
  2
LTYPE
  5
4
100
AcDbSymbolTable
 70
     7
  0
LTYPE
  5
11
100
AcDbSymbolTableRecord
100
AcDbLinetypeTableRecord
  2
ByBlock
 70
    64
  3

 72
    65
 73
     0
 40
0.0
  0
LTYPE
  5
12
100
AcDbSymbolTableRecord
100
AcDbLinetypeTableRecord
  2
ByLayer
 70
    64
  3

 72
    65
 73
     0
 40
0.0
  0
LTYPE
  5
13
100
AcDbSymbolTableRecord
100
AcDbLinetypeTableRecord
  2
Continuous
 70
    64
  3
Solid line
 72
    65
 73
     0
 40
0.0
  0
LTYPE
  5
24
100
AcDbSymbolTableRecord
100
AcDbLinetypeTableRecord
  2
DASHED
 70
    64
  3
Dashed __ __ __
 72
    65
 73
     2
 40
135.0
 49
67.5
 74
     0
 49
-67.5
 74
     0
  0
LTYPE
  5
25
100
AcDbSymbolTableRecord
100
AcDbLinetypeTableRecord
  2
DOT
 70
    64
  3
Dot . . . .
 72
    65
 73
     2
 40
102.5
 49
17.5
 74
     0
 49
-85.0
 74
     0
  0
LTYPE
  5
26
100
AcDbSymbolTableRecord
100
AcDbLinetypeTableRecord
  2
DASHDOT
 70
    64
  3
Dash dot __ . __ .
 72
    65
 73
     4
 40
852.5
 49
680.0
 74
     0
 49
-77.5
 74
     0
 49
17.5
 74
     0
 49
-77.5
 74
     0
  0
LTYPE
  5
27
100
AcDbSymbolTableRecord
100
AcDbLinetypeTableRecord
  2
DIVIDE
 70
    64
  3
Divide __ . . __ . .
 72
    65
 73
     6
 40
855.0
 49
587.5
 74
     0
 49
-77.5
 74
     0
 49
17.5
 74
     0
 49
-77.5
 74
     0
 49
17.5
 74
     0
 49
-77.5
 74
     0
  0
ENDTAB
  0
TABLE
  2
LAYER
  5
2
100
AcDbSymbolTable
 70
     8
  0
LAYER
  5
14
100
AcDbSymbolTableRecord
100
AcDbLayerTableRecord
  2
0
 70
     0
 62
     7
  6
Continuous
290
     1
370
    -3
390
1D
  0
LAYER
  5
2C
100
AcDbSymbolTableRecord
100
AcDbLayerTableRecord
  2
LAYER98
 70
     0
 62
     7
  6
Continuous
290
     1
370
    -3
390
1D
  0
LAYER
  5
30
100
AcDbSymbolTableRecord
100
AcDbLayerTableRecord
  2
HATCH_REACTORS
 70
     0
 62
    -7
  6
Continuous
290
     1
370
    -3
390
1D
  0
LAYER
  5
32
100
AcDbSymbolTableRecord
100
AcDbLayerTableRecord
  2
LAYER111
 70
     0
 62
     7
  6
Continuous
290
     1
370
    -3
390
1D
  0
LAYER
  5
34
100
AcDbSymbolTableRecord
100
AcDbLayerTableRecord
  2
LAYER01
 70
     0
 62
     7
  6
Continuous
290
     1
370
    -3
390
1D
  0
LAYER
  5
22E
100
AcDbSymbolTableRecord
100
AcDbLayerTableRecord
  2
LAYER21
 70
     0
 62
   213
  6
Continuous
290
     1
370
    -3
390
1D
  0
LAYER
  5
381
100
AcDbSymbolTableRecord
100
AcDbLayerTableRecord
  2
LAYER127
 70
     0
 62
     7
  6
Continuous
290
     1
370
    -3
390
1D
  0
LAYER
  5
391
100
AcDbSymbolTableRecord
100
AcDbLayerTableRecord
  2
LAYER49
 70
     0
 62
   213
  6
Continuous
290
     1
370
    -3
390
1D
  0
ENDTAB
  0
TABLE
  2
STYLE
  5
3
100
AcDbSymbolTable
 70
     1
  0
STYLE
  5
17
100
AcDbSymbolTableRecord
100
AcDbTextStyleTableRecord
  2
Standard
 70
     0
 40
0.0
 41
1.0
 50
0.0
 71
     0
 42
0.0
  3
txt
  4

  0
ENDTAB
  0
TABLE
  2
VIEW
  5
5
100
AcDbSymbolTable
 70
     0
  0
ENDTAB
  0
TABLE
  2
UCS
  5
6
100
AcDbSymbolTable
 70
     0
  0
ENDTAB
  0
TABLE
  2
APPID
  5
8
100
AcDbSymbolTable
 70
     1
  0
APPID
  5
16
100
AcDbSymbolTableRecord
100
AcDbRegAppTableRecord
  2
ACAD
 70
     0
  0
ENDTAB
  0
TABLE
  2
DIMSTYLE
  5
9
100
AcDbSymbolTable
 70
     1
100
AcDbDimStyleTable
 71
     0
  0
DIMSTYLE
105
18
100
AcDbSymbolTableRecord
100
AcDbDimStyleTableRecord
  2
Standard
 70
     0
  3

  4

 40
1.0
 41
0.18
 42
0.0625
 43
0.38
 44
0.18
 45
0.0
 46
0.0
 47
0.0
 48
0.0
 71
     0
 72
     0
 73
     1
 74
     1
 75
     0
 76
     0
 77
     0
 78
     0
 79
     0
140
0.18
141
0.09
142
0.0
143
25.4
144
1.0
145
0.0
146
1.0
147
0.09
148
0.0
170
     0
171
     2
172
     0
173
     0
174
     0
175
     0
176
     0
177
     0
178
     0
179
     0
271
     4
272
     4
273
     2
274
     2
275
     0
276
     0
277
     2
278
    46
279
     0
280
     0
281
     0
282
     0
283
     1
284
     0
285
     0
286
     0
288
     0
289
     3
340
17
341
0
342
0
343
0
344
0
371
    -2
372
    -2
  0
ENDTAB
  0
TABLE
  2
BLOCK_RECORD
  5
1
100
AcDbSymbolTable
 70
    21
  0
BLOCK_RECORD
  5
A
100
AcDbSymbolTableRecord
100
AcDbBlockTableRecord
  2
*MODEL_SPACE
340
20
  0
BLOCK_RECORD
  5
B
100
AcDbSymbolTableRecord
100
AcDbBlockTableRecord
  2
*PAPER_SPACE
340
21
  0
BLOCK_RECORD
  5
29
100
AcDbSymbolTableRecord
100
AcDbBlockTableRecord
  2
DET-DUI2_89
340
0
102
{BLKREFS
331
39F
102
}
  0
BLOCK_RECORD
  5
2D
100
AcDbSymbolTableRecord
100
AcDbBlockTableRecord
  2
2-500____U_89
340
0
102
{BLKREFS
331
39D
102
}
  0
BLOCK_RECORD
  5
45
100
AcDbSymbolTableRecord
100
AcDbBlockTableRecord
  2
HATCH-DP_U_89
340
0
102
{BLKREFS
331
A6
102
}
  0
BLOCK_RECORD
  5
1B7
100
AcDbSymbolTableRecord
100
AcDbBlockTableRecord
  2
N7976_TV_U_89
340
0
102
{BLKREFS
331
1BC
102
}
  0
BLOCK_RECORD
  5
1BD
100
AcDbSymbolTableRecord
100
AcDbBlockTableRecord
  2
N7976_TV_U_892
340
0
102
{BLKREFS
331
1C2
102
}
  0
BLOCK_RECORD
  5
1C5
100
AcDbSymbolTableRecord
100
AcDbBlockTableRecord
  2
1_115_FV_U_89
340
0
102
{BLKREFS
331
223
102
}
  0
BLOCK_RECORD
  5
1ED
100
AcDbSymbolTableRecord
100
AcDbBlockTableRecord
  2
HATCH--I_U_89
340
0
102
{BLKREFS
331
20A
102
}
  0
BLOCK_RECORD
  5
224
100
AcDbSymbolTableRecord
100
AcDbBlockTableRecord
  2
X80_F_US_U_M_89
340
0
102
{BLKREFS
331
23A
102
}
  0
BLOCK_RECORD
  5
22B
100
AcDbSymbolTableRecord
100
AcDbBlockTableRecord
  2
2--C2EV-CI_U_M_89
340
0
102
{BLKREFS
331
238
102
}
  0
BLOCK_RECORD
  5
245
100
AcDbSymbolTableRecord
100
AcDbBlockTableRecord
  2
_D---BQK_U_89
340
0
102
{BLKREFS
331
254
102
}
  0
BLOCK_RECORD
  5
24E
100
AcDbSymbolTableRecord
100
AcDbBlockTableRecord
  2
IT5E12___U_89
340
0
102
{BLKREFS
331
252
102
}
  0
BLOCK_RECORD
  5
255
100
AcDbSymbolTableRecord
100
AcDbBlockTableRecord
  2
_D---BQL_U_89
340
0
102
{BLKREFS
331
264
102
}
  0
BLOCK_RECORD
  5
25E
100
AcDbSymbolTableRecord
100
AcDbBlockTableRecord
  2
IT5E12___U_892
340
0
102
{BLKREFS
331
262
102
}
  0
BLOCK_RECORD
  5
35A
100
AcDbSymbolTableRecord
100
AcDbBlockTableRecord
  2
_D---BQM_U_89
340
0
102
{BLKREFS
331
369
102
}
  0
BLOCK_RECORD
  5
363
100
AcDbSymbolTableRecord
100
AcDbBlockTableRecord
  2
IT5E11___U_89
340
0
102
{BLKREFS
331
367
102
}
  0
BLOCK_RECORD
  5
36B
100
AcDbSymbolTableRecord
100
AcDbBlockTableRecord
  2
_D---BRW_U_89
340
0
102
{BLKREFS
331
377
102
}
  0
BLOCK_RECORD
  5
379
100
AcDbSymbolTableRecord
100
AcDbBlockTableRecord
  2
T-ROCKP__U_M_89
340
0
102
{BLKREFS
331
37D
102
}
  0
BLOCK_RECORD
  5
37E
100
AcDbSymbolTableRecord
100
AcDbBlockTableRecord
  2
T-VENTIL_U_89
340
0
102
{BLKREFS
331
383
102
}
  0
BLOCK_RECORD
  5
384
100
AcDbSymbolTableRecord
100
AcDbBlockTableRecord
  2
T-VENTIL_U_892
340
0
102
{BLKREFS
331
388
102
}
  0
BLOCK_RECORD
  5
389
100
AcDbSymbolTableRecord
100
AcDbBlockTableRecord
  2
T-ACHTER_U_89
340
0
102
{BLKREFS
331
38E
102
}
  0
BLOCK_RECORD
  5
3A2
100
AcDbSymbolTableRecord
100
AcDbBlockTableRecord
  2
KLPL2_A4_U_0
340
0
102
{BLKREFS
331
3AE
102
}
  0
ENDTAB
  0
ENDSEC
  0
SECTION
  2
BLOCKS
  0
BLOCK
  5
D
100
AcDbEntity
  8
0
390
0
100
AcDbBlockBegin
  2
*MODEL_SPACE
 70
     0
 10
0.0
 20
0.0
 30
0.0
  3
*MODEL_SPACE
  1

  0
ENDBLK
  5
E
100
AcDbEntity
  8
0
390
0
100
AcDbBlockEnd
  0
BLOCK
  5
F
100
AcDbEntity
 67
     1
  8
0
390
0
100
AcDbBlockBegin
  2
*PAPER_SPACE
 70
     0
 10
0.0
 20
0.0
 30
0.0
  3
*PAPER_SPACE
  1

  0
ENDBLK
  5
10
100
AcDbEntity
 67
     1
  8
0
390
0
100
AcDbBlockEnd
  0
BLOCK
  5
2A
100
AcDbEntity
  8
0
390
0
100
AcDbBlockBegin
  2
DET-DUI2_89
 70
     0
 10
0.0
 20
0.0
 30
0.0
  3
DET-DUI2_89
  1

  0
LWPOLYLINE
  5
2B
100
AcDbEntity
  8
LAYER98
370
     0
390
0
  6
DASHED
 62
     7
100
AcDbPolyline
 90
        4
 70
     1
 10
-982.374268
 20
-5155.120605
 10
-982.374268
 20
-4775.120605
 10
-488.774231
 20
-4775.120605
 10
-488.774231
 20
-5155.120605
  0
INSERT
  5
39D
100
AcDbEntity
  8
LAYER98
390
0
100
AcDbBlockReference
  2
2-500____U_89
 10
-636.174988
 20
-4732.78418
 30
0.0
 50
90.0
  0
ENDBLK
  5
39E
100
AcDbEntity
  8
0
390
0
100
AcDbBlockEnd
  0
BLOCK
  5
2E
100
AcDbEntity
  8
0
390
0
100
AcDbBlockBegin
  2
2-500____U_89
 70
     0
 10
0.0
 20
0.0
 30
0.0
  3
2-500____U_89
  1

  0
LWPOLYLINE
  5
2F
102
{ACAD_REACTORS
330
31
102
}
100
AcDbEntity
  8
HATCH_REACTORS
390
0
100
AcDbPolyline
 90
        4
 70
     1
 10
-42.336426
 20
-0.000061
 10
-200.0
 20
-0.000061
 10
-200.0
 20
229.487366
 10
-42.336426
 20
229.487366
  0
HATCH
  5
31
100
AcDbEntity
  8
LAYER111
370
     5
390
0
  6
Continuous
 62
   253
100
AcDbHatch
 10
0.0
 20
0.0
 30
0.0
210
0.0
220
0.0
230
1.0
  2
_CC7C1+B-1
 70
     1
 71
     1
 91
        1
 92
        2
 72
     0
 73
     1
 93
        4
 10
-42.33642578125
 20
-0.00006103515625
 10
-200.0
 20
-0.00006103515625
 10
-200.0
 20
229.48736572265625
 10
-42.33642578125
 20
229.48736572265625
 97
        1
330
2F
 75
     0
 76
     0
 98
        0
  0
LWPOLYLINE
  5
33
100
AcDbEntity
  8
LAYER01
370
    18
390
0
  6
DASHED
 62
     7
100
AcDbPolyline
 90
        2
 70
     0
 10
-270.0
 20
171.651428
 10
-270.0
 20
81.651428
  0
LWPOLYLINE
  5
35
100
AcDbEntity
  8
LAYER01
370
    35
390
0
  6
Continuous
 62
   134
100
AcDbPolyline
 90
        2
 70
     0
 10
-270.106445
 20
131.651428
 10
-270.106445
 20
121.651428
  0
LWPOLYLINE
  5
36
100
AcDbEntity
  8
LAYER01
370
    18
390
0
  6
Continuous
 62
     7
100
AcDbPolyline
 90
        2
 70
     0
 10
-312.12793
 20
63.485413
 10
-312.12793
 20
10.362732
  0
LWPOLYLINE
  5
37
100
AcDbEntity
  8
LAYER01
370
    18
390
0
  6
Continuous
 62
     7
100
AcDbPolyline
 90
        2
 70
     0
 10
-312.12793
 20
70.695251
 10
-314.458008
 20
63.485413
  0
LWPOLYLINE
  5
38
100
AcDbEntity
  8
LAYER01
370
    18
390
0
  6
Continuous
 62
     7
100
AcDbPolyline
 90
        2
 70
     0
 10
-314.458008
 20
63.485413
 10
-309.797852
 20
63.485413
  0
LWPOLYLINE
  5
39
100
AcDbEntity
  8
LAYER01
370
    18
390
0
  6
Continuous
 62
     7
100
AcDbPolyline
 90
        2
 70
     0
 10
-312.12793
 20
70.695251
 10
-309.797852
 20
63.485413
  0
LWPOLYLINE
  5
3A
100
AcDbEntity
  8
LAYER01
370
    13
390
0
  6
Continuous
 62
   213
100
AcDbPolyline
 90
      117
 70
     0
 10
-314.774902
 20
215.309875
 10
-315.175781
 20
217.000549
 10
-315.57959
 20
218.642151
 10
-315.986816
 20
220.234436
 10
-316.397461
 20
221.776917
 10
-316.811035
 20
223.269226
 10
-317.228516
 20
224.710999
 10
-317.649414
 20
226.101868
 10
-318.07373
 20
227.441589
 10
-318.501465
 20
228.729675
 10
-318.933105
 20
229.965759
 10
-319.368652
 20
231.149597
 10
-319.808105
 20
232.280579
 10
-320.251465
 20
233.358582
 10
-320.69873
 20
234.38324
 10
-321.149902
 20
235.353943
 10
-321.605469
 20
236.270569
 10
-322.064941
 20
237.132751
 10
-322.529297
 20
237.93988
 10
-322.997559
 20
238.691833
 10
-323.470215
 20
239.388123
 10
-323.947266
 20
240.028381
 10
-324.429199
 20
240.612366
 10
-324.915527
 20
241.139587
 10
-325.406738
 20
241.609802
 10
-325.902832
 20
242.0224
 10
-326.40332
 20
242.377258
 10
-326.90918
 20
242.674011
 10
-327.419434
 20
242.91217
 10
-327.935547
 20
243.09137
 10
-328.21875
 20
243.164246
 10
-328.503906
 20
243.21991
 10
-328.790039
 20
243.258728
 10
-329.078125
 20
243.281189
 10
-329.366699
 20
243.287659
 10
-329.656738
 20
243.278503
 10
-329.947754
 20
243.254211
 10
-330.239746
 20
243.215149
 10
-330.532715
 20
243.161926
 10
-330.826172
 20
243.094666
 10
-331.120605
 20
243.013977
 10
-331.416016
 20
242.920227
 10
-331.711426
 20
242.813782
 10
-332.007813
 20
242.695129
 10
-332.304199
 20
242.564636
 10
-332.601074
 20
242.422791
 10
-332.897949
 20
242.269958
 10
-333.195313
 20
242.106628
 10
-333.492676
 20
241.933044
 10
-333.789551
 20
241.749817
 10
-334.086914
 20
241.55719
 10
-334.383789
 20
241.355774
 10
-334.680664
 20
241.145813
 10
-334.977539
 20
240.927795
 10
-335.273438
 20
240.702209
 10
-335.568848
 20
240.469299
 10
-335.864258
 20
240.229675
 10
-336.158203
 20
239.983582
 10
-336.452148
 20
239.731628
 10
-336.867676
 20
239.364197
 10
-337.281738
 20
238.985779
 10
-337.694824
 20
238.596619
 10
-338.105957
 20
238.197083
 10
-338.516602
 20
237.787292
 10
-338.925781
 20
237.367615
 10
-339.333496
 20
236.938293
 10
-339.741211
 20
236.499451
 10
-340.147461
 20
236.051575
 10
-340.553223
 20
235.594666
 10
-340.958496
 20
235.129089
 10
-341.363281
 20
234.654968
 10
-341.767578
 20
234.172791
 10
-342.171875
 20
233.682678
 10
-342.576172
 20
233.184998
 10
-342.97998
 20
232.679749
 10
-343.384277
 20
232.167419
 10
-343.788086
 20
231.64801
 10
-344.192871
 20
231.122131
 10
-344.597656
 20
230.589783
 10
-345.00293
 20
230.051208
 10
-345.40918
 20
229.506775
 10
-345.81543
 20
228.956604
 10
-346.223145
 20
228.401184
 10
-346.631348
 20
227.840515
 10
-347.040527
 20
227.274841
 10
-347.451172
 20
226.704651
 10
-347.862793
 20
226.130066
 10
-348.275879
 20
225.551208
 10
-348.792969
 20
224.824036
 10
-349.312012
 20
224.090637
 10
-349.833496
 20
223.350891
 10
-350.356934
 20
222.604675
 10
-350.882324
 20
221.85199
 10
-351.409668
 20
221.092712
 10
-351.938965
 20
220.326477
 10
-352.470215
 20
219.553528
 10
-353.00293
 20
218.773376
 10
-353.538086
 20
217.986267
 10
-354.074219
 20
217.191711
 10
-354.612793
 20
216.389832
 10
-355.152344
 20
215.580505
 10
-355.693848
 20
214.763489
 10
-356.236816
 20
213.938782
 10
-356.78125
 20
213.10614
 10
-357.32666
 20
212.265564
 10
-357.874023
 20
211.416809
 10
-358.422363
 20
210.559875
 10
-358.972168
 20
209.694641
 10
-359.522949
 20
208.820862
 10
-360.075195
 20
207.938416
 10
-360.628418
 20
207.047424
 10
-361.182617
 20
206.147522
 10
-361.738281
 20
205.238586
 10
-362.294434
 20
204.32074
 10
-362.851563
 20
203.393616
 10
-363.409668
 20
202.457214
 10
-363.96875
 20
201.511292
  0
LWPOLYLINE
  5
3B
100
AcDbEntity
  8
LAYER01
370
    18
390
0
  6
Continuous
 62
     7
100
AcDbPolyline
 90
        2
 70
     0
 10
-367.353516
 20
195.145447
 10
-361.911133
 20
200.417419
  0
LWPOLYLINE
  5
3C
100
AcDbEntity
  8
LAYER01
370
    18
390
0
  6
Continuous
 62
     7
100
AcDbPolyline
 90
        2
 70
     0
 10
-361.911133
 20
200.417419
 10
-366.025879
 20
202.605164
  0
LWPOLYLINE
  5
3D
100
AcDbEntity
  8
LAYER01
370
    18
390
0
  6
Continuous
 62
     7
100
AcDbPolyline
 90
        2
 70
     0
 10
-367.353516
 20
195.145447
 10
-366.025879
 20
202.605164
  0
LWPOLYLINE
  5
3E
100
AcDbEntity
  8
LAYER01
370
    25
390
0
  6
DASHDOT
 62
    92
100
AcDbPolyline
 90
        7
 70
     0
 10
-342.773926
 20
-0.000061
 10
-339.773926
 20
-3.000061
 10
-336.773926
 20
-0.000061
 10
-316.773926
 20
-0.000061
 10
-313.773926
 20
2.999939
 10
-310.773926
 20
-0.000061
 10
-280.838867
 20
-0.000061
  0
LWPOLYLINE
  5
3F
100
AcDbEntity
  8
LAYER01
370
    35
390
0
  6
Continuous
 62
   134
100
AcDbPolyline
 90
        2
 70
     0
 10
-270.0
 20
81.651428
 10
-270.0
 20
-0.000061
  0
LWPOLYLINE
  5
40
100
AcDbEntity
  8
LAYER01
370
    35
390
0
  6
Continuous
 62
   134
100
AcDbPolyline
 90
        2
 70
     0
 10
-328.399902
 20
219.435242
 10
-328.399902
 20
-0.000061
  0
LWPOLYLINE
  5
41
100
AcDbEntity
  8
LAYER01
370
    35
390
0
  6
Continuous
 62
   134
100
AcDbPolyline
 90
        2
 70
     0
 10
-270.0
 20
171.651428
 10
-270.0
 20
219.435242
  0
LWPOLYLINE
  5
42
100
AcDbEntity
  8
LAYER01
370
    35
390
0
  6
Continuous
 62
   134
100
AcDbPolyline
 90
        2
 70
     0
 10
-330.0
 20
219.435242
 10
-270.0
 20
219.435242
  0
LWPOLYLINE
  5
43
100
AcDbEntity
  8
LAYER01
370
    35
390
0
  6
Continuous
 62
   134
100
AcDbPolyline
 90
        2
 70
     0
 10
-200.0
 20
-0.000061
 10
-200.0
 20
229.487366
  0
LWPOLYLINE
  5
44
100
AcDbEntity
  8
LAYER01
370
    25
390
0
  6
DASHDOT
 62
    92
100
AcDbPolyline
 90
        7
 70
     0
 10
-42.336426
 20
-0.000061
 10
-214.691406
 20
-0.000061
 10
-216.691406
 20
1.999939
 10
-218.691406
 20
-0.000061
 10
-276.838867
 20
-0.000061
 10
-278.838867
 20
-2.000061
 10
-280.838867
 20
-0.000061
  0
INSERT
  5
A6
100
AcDbEntity
  8
LAYER01
390
0
100
AcDbBlockReference
  2
HATCH-DP_U_89
 10
-1677.21582
 20
-49.174988
 30
0.0
  0
LWPOLYLINE
  5
A7
100
AcDbEntity
  8
LAYER01
370
    35
390
0
  6
Continuous
 62
   134
100
AcDbPolyline
 90
        2
 70
     0
 10
-370.76416
 20
208.22467
 10
-370.76416
 20
275.579285
  0
LWPOLYLINE
  5
A8
100
AcDbEntity
  8
LAYER01
370
    13
390
0
  6
Continuous
 62
   213
100
AcDbPolyline
 90
        2
 70
     0
 10
-370.76416
 20
208.22467
 42
0.603754
 10
-369.197754
 20
207.400574
  0
LWPOLYLINE
  5
A9
100
AcDbEntity
  8
LAYER01
370
    35
390
0
  6
Continuous
 62
   134
100
AcDbPolyline
 90
        2
 70
     0
 10
-373.76416
 20
208.22467
 10
-373.76416
 20
275.579285
  0
LWPOLYLINE
  5
AA
100
AcDbEntity
  8
LAYER01
370
    13
390
0
  6
Continuous
 62
   213
100
AcDbPolyline
 90
        2
 70
     0
 10
-373.76416
 20
208.22467
 42
0.603754
 10
-367.499512
 20
204.927551
  0
LWPOLYLINE
  5
AB
100
AcDbEntity
  8
LAYER01
370
    35
390
0
  6
Continuous
 62
   134
100
AcDbPolyline
 90
        2
 70
     0
 10
-368.76416
 20
212.309753
 10
-368.76416
 20
272.473083
  0
LWPOLYLINE
  5
AC
100
AcDbEntity
  8
LAYER01
370
    13
390
0
  6
Continuous
 62
   213
100
AcDbPolyline
 90
        2
 70
     0
 10
-367.616699
 20
275.469421
 42
0.428674
 10
-370.76416
 20
272.473083
  0
LWPOLYLINE
  5
AD
100
AcDbEntity
  8
LAYER01
370
    13
390
0
  6
Continuous
 62
   213
100
AcDbPolyline
 90
        2
 70
     0
 10
-367.714844
 20
273.471863
 42
0.428674
 10
-368.76416
 20
272.473083
  0
LWPOLYLINE
  5
AE
100
AcDbEntity
  8
LAYER01
370
    25
390
0
  6
Continuous
 62
    92
100
AcDbPolyline
 90
        2
 70
     0
 10
-200.0
 20
229.487366
 10
-300.0
 20
229.487366
  0
LWPOLYLINE
  5
AF
100
AcDbEntity
  8
LAYER01
370
    35
390
0
  6
Continuous
 62
   134
100
AcDbPolyline
 90
        2
 70
     0
 10
-42.336426
 20
229.487366
 10
-200.0
 20
229.487366
  0
LWPOLYLINE
  5
B0
100
AcDbEntity
  8
LAYER01
370
    35
390
0
  6
Continuous
 62
   134
100
AcDbPolyline
 90
        2
 70
     0
 10
-367.499023
 20
204.927673
 10
-358.003418
 20
214.679382
  0
LWPOLYLINE
  5
B1
100
AcDbEntity
  8
LAYER01
370
    35
390
0
  6
Continuous
 62
   134
100
AcDbPolyline
 90
        2
 70
     0
 10
-369.197754
 20
207.400452
 10
-359.70166
 20
217.152161
  0
LWPOLYLINE
  5
B2
100
AcDbEntity
  8
LAYER01
370
    35
390
0
  6
Continuous
 62
   134
100
AcDbPolyline
 90
        2
 70
     0
 10
-358.003418
 20
214.679382
 10
-359.70166
 20
217.152161
  0
LWPOLYLINE
  5
B3
100
AcDbEntity
  8
LAYER01
370
    35
390
0
  6
Continuous
 62
   134
100
AcDbPolyline
 90
        2
 70
     0
 10
-368.76416
 20
212.309753
 10
-370.76416
 20
212.309753
  0
LWPOLYLINE
  5
B4
100
AcDbEntity
  8
LAYER01
370
    35
390
0
  6
Continuous
 62
   134
100
AcDbPolyline
 90
        3
 70
     0
 10
-366.281738
 20
271.765686
 10
-367.049316
 20
249.779114
 10
-42.336426
 20
246.732727
  0
LWPOLYLINE
  5
B5
100
AcDbEntity
  8
LAYER01
370
    35
390
0
  6
Continuous
 62
   134
100
AcDbPolyline
 90
        2
 70
     0
 10
-42.336426
 20
268.726624
 10
-366.281738
 20
271.765686
  0
LWPOLYLINE
  5
B6
100
AcDbEntity
  8
LAYER01
370
    35
390
0
  6
Continuous
 62
   134
100
AcDbPolyline
 90
        2
 70
     0
 10
-42.336426
 20
268.857483
 10
-367.753906
 20
273.472961
  0
LWPOLYLINE
  5
B7
100
AcDbEntity
  8
LAYER01
370
    35
390
0
  6
Continuous
 62
   134
100
AcDbPolyline
 90
        2
 70
     0
 10
-42.336426
 20
270.824158
 10
-370.76416
 20
275.579285
  0
LWPOLYLINE
  5
B8
100
AcDbEntity
  8
LAYER01
370
    35
390
0
  6
Continuous
 62
   134
100
AcDbPolyline
 90
        2
 70
     0
 10
-42.336426
 20
273.823914
 10
-370.65918
 20
278.577576
  0
LWPOLYLINE
  5
B9
100
AcDbEntity
  8
LAYER01
370
    13
390
0
  6
Continuous
 62
   213
100
AcDbPolyline
 90
        2
 70
     0
 10
-370.659668
 20
278.577454
 42
0.424475
 10
-373.76416
 20
275.579285
  0
LWPOLYLINE
  5
BA
100
AcDbEntity
  8
LAYER01
370
    35
390
0
  6
Continuous
 62
   134
100
AcDbPolyline
 90
        2
 70
     0
 10
-215.0
 20
229.487366
 10
-215.0
 20
248.3526
  0
LWPOLYLINE
  5
BB
100
AcDbEntity
  8
LAYER01
370
    25
390
0
  6
DASHDOT
 62
    92
100
AcDbPolyline
 90
        2
 70
     0
 10
-190.041504
 20
214.366516
 10
-190.041504
 20
274.825256
  0
LWPOLYLINE
  5
BC
100
AcDbEntity
  8
LAYER01
370
    35
390
0
  6
Continuous
 62
   134
100
AcDbPolyline
 90
        2
 70
     0
 10
-187.634277
 20
231.877502
 10
-187.634277
 20
232.877502
  0
LWPOLYLINE
  5
BD
100
AcDbEntity
  8
LAYER01
370
    35
390
0
  6
Continuous
 62
   134
100
AcDbPolyline
 90
        2
 70
     0
 10
-192.43457
 20
232.723938
 10
-193.03418
 20
232.377502
  0
LWPOLYLINE
  5
BE
100
AcDbEntity
  8
LAYER01
370
    35
390
0
  6
Continuous
 62
   134
100
AcDbPolyline
 90
        2
 70
     0
 10
-193.03418
 20
232.377502
 10
-192.43457
 20
232.031067
  0
LWPOLYLINE
  5
BF
100
AcDbEntity
  8
LAYER01
370
    35
390
0
  6
Continuous
 62
   134
100
AcDbPolyline
 90
        2
 70
     0
 10
-187.634277
 20
233.570374
 10
-187.03418
 20
233.223938
  0
LWPOLYLINE
  5
C0
100
AcDbEntity
  8
LAYER01
370
    35
390
0
  6
Continuous
 62
   134
100
AcDbPolyline
 90
        2
 70
     0
 10
-187.03418
 20
233.223938
 10
-187.634277
 20
232.877502
  0
LWPOLYLINE
  5
C1
100
AcDbEntity
  8
LAYER01
370
    35
390
0
  6
Continuous
 62
   134
100
AcDbPolyline
 90
        2
 70
     0
 10
-193.03418
 20
232.377502
 10
-187.03418
 20
233.223938
  0
LWPOLYLINE
  5
C2
100
AcDbEntity
  8
LAYER01
370
    35
390
0
  6
Continuous
 62
   134
100
AcDbPolyline
 90
        2
 70
     0
 10
-192.43457
 20
232.723938
 10
-187.634277
 20
233.570374
  0
LWPOLYLINE
  5
C3
100
AcDbEntity
  8
LAYER01
370
    35
390
0
  6
Continuous
 62
   134
100
AcDbPolyline
 90
        2
 70
     0
 10
-192.43457
 20
232.031067
 10
-187.634277
 20
232.877502
  0
LWPOLYLINE
  5
C4
100
AcDbEntity
  8
LAYER01
370
    35
390
0
  6
Continuous
 62
   134
100
AcDbPolyline
 90
        2
 70
     0
 10
-187.634277
 20
235.263123
 10
-187.634277
 20
236.263123
  0
LWPOLYLINE
  5
C5
100
AcDbEntity
  8
LAYER01
370
    35
390
0
  6
Continuous
 62
   134
100
AcDbPolyline
 90
        2
 70
     0
 10
-192.43457
 20
234.416809
 10
-192.43457
 20
235.416809
  0
LWPOLYLINE
  5
C6
100
AcDbEntity
  8
LAYER01
370
    35
390
0
  6
Continuous
 62
   134
100
AcDbPolyline
 90
        2
 70
     0
 10
-192.43457
 20
233.723938
 10
-193.03418
 20
234.070374
  0
LWPOLYLINE
  5
C7
100
AcDbEntity
  8
LAYER01
370
    35
390
0
  6
Continuous
 62
   134
100
AcDbPolyline
 90
        2
 70
     0
 10
-193.03418
 20
234.070374
 10
-192.43457
 20
234.416809
  0
LWPOLYLINE
  5
C8
100
AcDbEntity
  8
LAYER01
370
    35
390
0
  6
Continuous
 62
   134
100
AcDbPolyline
 90
        2
 70
     0
 10
-192.43457
 20
236.109558
 10
-193.03418
 20
235.763123
  0
LWPOLYLINE
  5
C9
100
AcDbEntity
  8
LAYER01
370
    35
390
0
  6
Continuous
 62
   134
100
AcDbPolyline
 90
        2
 70
     0
 10
-193.03418
 20
235.763123
 10
-192.43457
 20
235.416809
  0
LWPOLYLINE
  5
CA
100
AcDbEntity
  8
LAYER01
370
    35
390
0
  6
Continuous
 62
   134
100
AcDbPolyline
 90
        2
 70
     0
 10
-187.634277
 20
234.570374
 10
-187.03418
 20
234.916809
  0
LWPOLYLINE
  5
CB
100
AcDbEntity
  8
LAYER01
370
    35
390
0
  6
Continuous
 62
   134
100
AcDbPolyline
 90
        2
 70
     0
 10
-187.03418
 20
234.916809
 10
-187.634277
 20
235.263123
  0
LWPOLYLINE
  5
CC
100
AcDbEntity
  8
LAYER01
370
    35
390
0
  6
Continuous
 62
   134
100
AcDbPolyline
 90
        2
 70
     0
 10
-187.634277
 20
236.955994
 10
-187.03418
 20
236.609558
  0
LWPOLYLINE
  5
CD
100
AcDbEntity
  8
LAYER01
370
    35
390
0
  6
Continuous
 62
   134
100
AcDbPolyline
 90
        2
 70
     0
 10
-187.03418
 20
236.609558
 10
-187.634277
 20
236.263123
  0
LWPOLYLINE
  5
CE
100
AcDbEntity
  8
LAYER01
370
    35
390
0
  6
Continuous
 62
   134
100
AcDbPolyline
 90
        2
 70
     0
 10
-193.03418
 20
234.070374
 10
-187.03418
 20
234.916809
  0
LWPOLYLINE
  5
CF
100
AcDbEntity
  8
LAYER01
370
    35
390
0
  6
Continuous
 62
   134
100
AcDbPolyline
 90
        2
 70
     0
 10
-192.43457
 20
234.416809
 10
-187.634277
 20
235.263123
  0
LWPOLYLINE
  5
D0
100
AcDbEntity
  8
LAYER01
370
    35
390
0
  6
Continuous
 62
   134
100
AcDbPolyline
 90
        2
 70
     0
 10
-192.43457
 20
233.723938
 10
-187.634277
 20
234.570374
  0
LWPOLYLINE
  5
D1
100
AcDbEntity
  8
LAYER01
370
    35
390
0
  6
Continuous
 62
   134
100
AcDbPolyline
 90
        2
 70
     0
 10
-193.03418
 20
235.763123
 10
-187.03418
 20
236.609558
  0
LWPOLYLINE
  5
D2
100
AcDbEntity
  8
LAYER01
370
    35
390
0
  6
Continuous
 62
   134
100
AcDbPolyline
 90
        2
 70
     0
 10
-192.43457
 20
236.109558
 10
-187.634277
 20
236.955994
  0
LWPOLYLINE
  5
D3
100
AcDbEntity
  8
LAYER01
370
    35
390
0
  6
Continuous
 62
   134
100
AcDbPolyline
 90
        2
 70
     0
 10
-192.43457
 20
235.416809
 10
-187.634277
 20
236.263123
  0
LWPOLYLINE
  5
D4
100
AcDbEntity
  8
LAYER01
370
    35
390
0
  6
Continuous
 62
   134
100
AcDbPolyline
 90
        2
 70
     0
 10
-187.634277
 20
233.570374
 10
-187.634277
 20
234.570374
  0
LWPOLYLINE
  5
D5
100
AcDbEntity
  8
LAYER01
370
    35
390
0
  6
Continuous
 62
   134
100
AcDbPolyline
 90
        2
 70
     0
 10
-192.43457
 20
233.723938
 10
-192.43457
 20
232.723938
  0
LWPOLYLINE
  5
D6
100
AcDbEntity
  8
LAYER01
370
    35
390
0
  6
Continuous
 62
   134
100
AcDbPolyline
 90
        2
 70
     0
 10
-192.43457
 20
236.109558
 10
-192.43457
 20
237.109558
  0
LWPOLYLINE
  5
D7
100
AcDbEntity
  8
LAYER01
370
    35
390
0
  6
Continuous
 62
   134
100
AcDbPolyline
 90
        2
 70
     0
 10
-187.634277
 20
238.648743
 10
-187.634277
 20
239.648743
  0
LWPOLYLINE
  5
D8
100
AcDbEntity
  8
LAYER01
370
    35
390
0
  6
Continuous
 62
   134
100
AcDbPolyline
 90
        2
 70
     0
 10
-192.43457
 20
237.802429
 10
-192.43457
 20
238.802429
  0
LWPOLYLINE
  5
D9
100
AcDbEntity
  8
LAYER01
370
    35
390
0
  6
Continuous
 62
   134
100
AcDbPolyline
 90
        2
 70
     0
 10
-192.43457
 20
237.109558
 10
-193.03418
 20
237.455994
  0
LWPOLYLINE
  5
DA
100
AcDbEntity
  8
LAYER01
370
    35
390
0
  6
Continuous
 62
   134
100
AcDbPolyline
 90
        2
 70
     0
 10
-193.03418
 20
237.455994
 10
-192.43457
 20
237.802429
  0
LWPOLYLINE
  5
DB
100
AcDbEntity
  8
LAYER01
370
    35
390
0
  6
Continuous
 62
   134
100
AcDbPolyline
 90
        2
 70
     0
 10
-192.43457
 20
239.495178
 10
-193.03418
 20
239.148743
  0
LWPOLYLINE
  5
DC
100
AcDbEntity
  8
LAYER01
370
    35
390
0
  6
Continuous
 62
   134
100
AcDbPolyline
 90
        2
 70
     0
 10
-193.03418
 20
239.148743
 10
-192.43457
 20
238.802429
  0
LWPOLYLINE
  5
DD
100
AcDbEntity
  8
LAYER01
370
    35
390
0
  6
Continuous
 62
   134
100
AcDbPolyline
 90
        2
 70
     0
 10
-187.634277
 20
237.955994
 10
-187.03418
 20
238.302429
  0
LWPOLYLINE
  5
DE
100
AcDbEntity
  8
LAYER01
370
    35
390
0
  6
Continuous
 62
   134
100
AcDbPolyline
 90
        2
 70
     0
 10
-187.03418
 20
238.302429
 10
-187.634277
 20
238.648743
  0
LWPOLYLINE
  5
DF
100
AcDbEntity
  8
LAYER01
370
    35
390
0
  6
Continuous
 62
   134
100
AcDbPolyline
 90
        2
 70
     0
 10
-187.634277
 20
240.341614
 10
-187.03418
 20
239.995178
  0
LWPOLYLINE
  5
E0
100
AcDbEntity
  8
LAYER01
370
    35
390
0
  6
Continuous
 62
   134
100
AcDbPolyline
 90
        2
 70
     0
 10
-187.03418
 20
239.995178
 10
-187.634277
 20
239.648743
  0
LWPOLYLINE
  5
E1
100
AcDbEntity
  8
LAYER01
370
    35
390
0
  6
Continuous
 62
   134
100
AcDbPolyline
 90
        2
 70
     0
 10
-193.03418
 20
237.455994
 10
-187.03418
 20
238.302429
  0
LWPOLYLINE
  5
E2
100
AcDbEntity
  8
LAYER01
370
    35
390
0
  6
Continuous
 62
   134
100
AcDbPolyline
 90
        2
 70
     0
 10
-192.43457
 20
237.802429
 10
-187.634277
 20
238.648743
  0
LWPOLYLINE
  5
E3
100
AcDbEntity
  8
LAYER01
370
    35
390
0
  6
Continuous
 62
   134
100
AcDbPolyline
 90
        2
 70
     0
 10
-192.43457
 20
237.109558
 10
-187.634277
 20
237.955994
  0
LWPOLYLINE
  5
E4
100
AcDbEntity
  8
LAYER01
370
    35
390
0
  6
Continuous
 62
   134
100
AcDbPolyline
 90
        2
 70
     0
 10
-193.03418
 20
239.148743
 10
-187.03418
 20
239.995178
  0
LWPOLYLINE
  5
E5
100
AcDbEntity
  8
LAYER01
370
    35
390
0
  6
Continuous
 62
   134
100
AcDbPolyline
 90
        2
 70
     0
 10
-192.43457
 20
239.495178
 10
-187.634277
 20
240.341614
  0
LWPOLYLINE
  5
E6
100
AcDbEntity
  8
LAYER01
370
    35
390
0
  6
Continuous
 62
   134
100
AcDbPolyline
 90
        2
 70
     0
 10
-192.43457
 20
238.802429
 10
-187.634277
 20
239.648743
  0
LWPOLYLINE
  5
E7
100
AcDbEntity
  8
LAYER01
370
    35
390
0
  6
Continuous
 62
   134
100
AcDbPolyline
 90
        2
 70
     0
 10
-187.634277
 20
236.955994
 10
-187.634277
 20
237.955994
  0
LWPOLYLINE
  5
E8
100
AcDbEntity
  8
LAYER01
370
    35
390
0
  6
Continuous
 62
   134
100
AcDbPolyline
 90
        2
 70
     0
 10
-187.634277
 20
242.034485
 10
-187.634277
 20
243.034485
  0
LWPOLYLINE
  5
E9
100
AcDbEntity
  8
LAYER01
370
    35
390
0
  6
Continuous
 62
   134
100
AcDbPolyline
 90
        2
 70
     0
 10
-192.43457
 20
241.188049
 10
-192.43457
 20
242.188049
  0
LWPOLYLINE
  5
EA
100
AcDbEntity
  8
LAYER01
370
    35
390
0
  6
Continuous
 62
   134
100
AcDbPolyline
 90
        2
 70
     0
 10
-192.43457
 20
240.495178
 10
-193.03418
 20
240.841614
  0
LWPOLYLINE
  5
EB
100
AcDbEntity
  8
LAYER01
370
    35
390
0
  6
Continuous
 62
   134
100
AcDbPolyline
 90
        2
 70
     0
 10
-193.03418
 20
240.841614
 10
-192.43457
 20
241.188049
  0
LWPOLYLINE
  5
EC
100
AcDbEntity
  8
LAYER01
370
    35
390
0
  6
Continuous
 62
   134
100
AcDbPolyline
 90
        2
 70
     0
 10
-192.43457
 20
242.880798
 10
-193.03418
 20
242.534485
  0
LWPOLYLINE
  5
ED
100
AcDbEntity
  8
LAYER01
370
    35
390
0
  6
Continuous
 62
   134
100
AcDbPolyline
 90
        2
 70
     0
 10
-193.03418
 20
242.534485
 10
-192.43457
 20
242.188049
  0
LWPOLYLINE
  5
EE
100
AcDbEntity
  8
LAYER01
370
    35
390
0
  6
Continuous
 62
   134
100
AcDbPolyline
 90
        2
 70
     0
 10
-187.634277
 20
241.341614
 10
-187.03418
 20
241.688049
  0
LWPOLYLINE
  5
EF
100
AcDbEntity
  8
LAYER01
370
    35
390
0
  6
Continuous
 62
   134
100
AcDbPolyline
 90
        2
 70
     0
 10
-187.03418
 20
241.688049
 10
-187.634277
 20
242.034485
  0
LWPOLYLINE
  5
F0
100
AcDbEntity
  8
LAYER01
370
    35
390
0
  6
Continuous
 62
   134
100
AcDbPolyline
 90
        2
 70
     0
 10
-187.634277
 20
243.727234
 10
-187.03418
 20
243.380798
  0
LWPOLYLINE
  5
F1
100
AcDbEntity
  8
LAYER01
370
    35
390
0
  6
Continuous
 62
   134
100
AcDbPolyline
 90
        2
 70
     0
 10
-187.03418
 20
243.380798
 10
-187.634277
 20
243.034485
  0
LWPOLYLINE
  5
F2
100
AcDbEntity
  8
LAYER01
370
    35
390
0
  6
Continuous
 62
   134
100
AcDbPolyline
 90
        2
 70
     0
 10
-193.03418
 20
240.841614
 10
-187.03418
 20
241.688049
  0
LWPOLYLINE
  5
F3
100
AcDbEntity
  8
LAYER01
370
    35
390
0
  6
Continuous
 62
   134
100
AcDbPolyline
 90
        2
 70
     0
 10
-192.43457
 20
241.188049
 10
-187.634277
 20
242.034485
  0
LWPOLYLINE
  5
F4
100
AcDbEntity
  8
LAYER01
370
    35
390
0
  6
Continuous
 62
   134
100
AcDbPolyline
 90
        2
 70
     0
 10
-192.43457
 20
240.495178
 10
-187.634277
 20
241.341614
  0
LWPOLYLINE
  5
F5
100
AcDbEntity
  8
LAYER01
370
    35
390
0
  6
Continuous
 62
   134
100
AcDbPolyline
 90
        2
 70
     0
 10
-193.03418
 20
242.534485
 10
-187.03418
 20
243.380798
  0
LWPOLYLINE
  5
F6
100
AcDbEntity
  8
LAYER01
370
    35
390
0
  6
Continuous
 62
   134
100
AcDbPolyline
 90
        2
 70
     0
 10
-192.43457
 20
242.880798
 10
-187.634277
 20
243.727234
  0
LWPOLYLINE
  5
F7
100
AcDbEntity
  8
LAYER01
370
    35
390
0
  6
Continuous
 62
   134
100
AcDbPolyline
 90
        2
 70
     0
 10
-192.43457
 20
242.188049
 10
-187.634277
 20
243.034485
  0
LWPOLYLINE
  5
F8
100
AcDbEntity
  8
LAYER01
370
    35
390
0
  6
Continuous
 62
   134
100
AcDbPolyline
 90
        2
 70
     0
 10
-187.634277
 20
240.341614
 10
-187.634277
 20
241.341614
  0
LWPOLYLINE
  5
F9
100
AcDbEntity
  8
LAYER01
370
    35
390
0
  6
Continuous
 62
   134
100
AcDbPolyline
 90
        2
 70
     0
 10
-192.43457
 20
239.495178
 10
-192.43457
 20
240.495178
  0
LWPOLYLINE
  5
FA
100
AcDbEntity
  8
LAYER01
370
    35
390
0
  6
Continuous
 62
   134
100
AcDbPolyline
 90
        2
 70
     0
 10
-187.634277
 20
245.420105
 10
-187.634277
 20
246.420105
  0
LWPOLYLINE
  5
FB
100
AcDbEntity
  8
LAYER01
370
    35
390
0
  6
Continuous
 62
   134
100
AcDbPolyline
 90
        2
 70
     0
 10
-192.43457
 20
244.573669
 10
-192.43457
 20
245.573669
  0
LWPOLYLINE
  5
FC
100
AcDbEntity
  8
LAYER01
370
    35
390
0
  6
Continuous
 62
   134
100
AcDbPolyline
 90
        2
 70
     0
 10
-192.43457
 20
243.880798
 10
-193.03418
 20
244.227234
  0
LWPOLYLINE
  5
FD
100
AcDbEntity
  8
LAYER01
370
    35
390
0
  6
Continuous
 62
   134
100
AcDbPolyline
 90
        2
 70
     0
 10
-193.03418
 20
244.227234
 10
-192.43457
 20
244.573669
  0
LWPOLYLINE
  5
FE
100
AcDbEntity
  8
LAYER01
370
    35
390
0
  6
Continuous
 62
   134
100
AcDbPolyline
 90
        2
 70
     0
 10
-192.43457
 20
246.266541
 10
-193.03418
 20
245.920105
  0
LWPOLYLINE
  5
FF
100
AcDbEntity
  8
LAYER01
370
    35
390
0
  6
Continuous
 62
   134
100
AcDbPolyline
 90
        2
 70
     0
 10
-193.03418
 20
245.920105
 10
-192.43457
 20
245.573669
  0
LWPOLYLINE
  5
100
100
AcDbEntity
  8
LAYER01
370
    35
390
0
  6
Continuous
 62
   134
100
AcDbPolyline
 90
        2
 70
     0
 10
-187.634277
 20
244.727234
 10
-187.03418
 20
245.073669
  0
LWPOLYLINE
  5
101
100
AcDbEntity
  8
LAYER01
370
    35
390
0
  6
Continuous
 62
   134
100
AcDbPolyline
 90
        2
 70
     0
 10
-187.03418
 20
245.073669
 10
-187.634277
 20
245.420105
  0
LWPOLYLINE
  5
102
100
AcDbEntity
  8
LAYER01
370
    35
390
0
  6
Continuous
 62
   134
100
AcDbPolyline
 90
        2
 70
     0
 10
-187.634277
 20
247.112854
 10
-187.03418
 20
246.766541
  0
LWPOLYLINE
  5
103
100
AcDbEntity
  8
LAYER01
370
    35
390
0
  6
Continuous
 62
   134
100
AcDbPolyline
 90
        2
 70
     0
 10
-187.03418
 20
246.766541
 10
-187.634277
 20
246.420105
  0
LWPOLYLINE
  5
104
100
AcDbEntity
  8
LAYER01
370
    35
390
0
  6
Continuous
 62
   134
100
AcDbPolyline
 90
        2
 70
     0
 10
-193.03418
 20
244.227234
 10
-187.03418
 20
245.073669
  0
LWPOLYLINE
  5
105
100
AcDbEntity
  8
LAYER01
370
    35
390
0
  6
Continuous
 62
   134
100
AcDbPolyline
 90
        2
 70
     0
 10
-192.43457
 20
244.573669
 10
-187.634277
 20
245.420105
  0
LWPOLYLINE
  5
106
100
AcDbEntity
  8
LAYER01
370
    35
390
0
  6
Continuous
 62
   134
100
AcDbPolyline
 90
        2
 70
     0
 10
-192.43457
 20
243.880798
 10
-187.634277
 20
244.727234
  0
LWPOLYLINE
  5
107
100
AcDbEntity
  8
LAYER01
370
    35
390
0
  6
Continuous
 62
   134
100
AcDbPolyline
 90
        2
 70
     0
 10
-193.03418
 20
245.920105
 10
-187.03418
 20
246.766541
  0
LWPOLYLINE
  5
108
100
AcDbEntity
  8
LAYER01
370
    35
390
0
  6
Continuous
 62
   134
100
AcDbPolyline
 90
        2
 70
     0
 10
-192.43457
 20
246.266541
 10
-187.634277
 20
247.112854
  0
LWPOLYLINE
  5
109
100
AcDbEntity
  8
LAYER01
370
    35
390
0
  6
Continuous
 62
   134
100
AcDbPolyline
 90
        2
 70
     0
 10
-192.43457
 20
245.573669
 10
-187.634277
 20
246.420105
  0
LWPOLYLINE
  5
10A
100
AcDbEntity
  8
LAYER01
370
    35
390
0
  6
Continuous
 62
   134
100
AcDbPolyline
 90
        2
 70
     0
 10
-187.634277
 20
243.727234
 10
-187.634277
 20
244.727234
  0
LWPOLYLINE
  5
10B
100
AcDbEntity
  8
LAYER01
370
    35
390
0
  6
Continuous
 62
   134
100
AcDbPolyline
 90
        2
 70
     0
 10
-192.43457
 20
243.880798
 10
-192.43457
 20
242.880798
  0
LWPOLYLINE
  5
10C
100
AcDbEntity
  8
LAYER01
370
    35
390
0
  6
Continuous
 62
   134
100
AcDbPolyline
 90
        2
 70
     0
 10
-187.634277
 20
247.112854
 10
-187.634277
 20
248.112854
  0
LWPOLYLINE
  5
10D
100
AcDbEntity
  8
LAYER01
370
    35
390
0
  6
Continuous
 62
   134
100
AcDbPolyline
 90
        2
 70
     0
 10
-192.43457
 20
246.266541
 10
-192.43457
 20
247.266541
  0
LWPOLYLINE
  5
10E
100
AcDbEntity
  8
LAYER01
370
    35
390
0
  6
Continuous
 62
   134
100
AcDbPolyline
 90
        2
 70
     0
 10
-192.43457
 20
247.95929
 10
-193.03418
 20
247.612854
  0
LWPOLYLINE
  5
10F
100
AcDbEntity
  8
LAYER01
370
    35
390
0
  6
Continuous
 62
   134
100
AcDbPolyline
 90
        2
 70
     0
 10
-193.03418
 20
247.612854
 10
-192.43457
 20
247.266541
  0
LWPOLYLINE
  5
110
100
AcDbEntity
  8
LAYER01
370
    35
390
0
  6
Continuous
 62
   134
100
AcDbPolyline
 90
        2
 70
     0
 10
-187.634277
 20
248.805725
 10
-187.03418
 20
248.45929
  0
LWPOLYLINE
  5
111
100
AcDbEntity
  8
LAYER01
370
    35
390
0
  6
Continuous
 62
   134
100
AcDbPolyline
 90
        2
 70
     0
 10
-187.03418
 20
248.45929
 10
-187.634277
 20
248.112854
  0
LWPOLYLINE
  5
112
100
AcDbEntity
  8
LAYER01
370
    35
390
0
  6
Continuous
 62
   134
100
AcDbPolyline
 90
        2
 70
     0
 10
-193.03418
 20
247.612854
 10
-187.03418
 20
248.45929
  0
LWPOLYLINE
  5
113
100
AcDbEntity
  8
LAYER01
370
    35
390
0
  6
Continuous
 62
   134
100
AcDbPolyline
 90
        2
 70
     0
 10
-192.43457
 20
247.95929
 10
-187.634277
 20
248.805725
  0
LWPOLYLINE
  5
114
100
AcDbEntity
  8
LAYER01
370
    35
390
0
  6
Continuous
 62
   134
100
AcDbPolyline
 90
        2
 70
     0
 10
-192.43457
 20
247.266541
 10
-187.634277
 20
248.112854
  0
LWPOLYLINE
  5
115
100
AcDbEntity
  8
LAYER01
370
    35
390
0
  6
Continuous
 62
   134
100
AcDbPolyline
 90
        2
 70
     0
 10
-187.634277
 20
248.805725
 10
-187.634277
 20
249.805725
  0
LWPOLYLINE
  5
116
100
AcDbEntity
  8
LAYER01
370
    35
390
0
  6
Continuous
 62
   134
100
AcDbPolyline
 90
        2
 70
     0
 10
-192.43457
 20
247.95929
 10
-192.43457
 20
248.95929
  0
LWPOLYLINE
  5
117
100
AcDbEntity
  8
LAYER01
370
    35
390
0
  6
Continuous
 62
   134
100
AcDbPolyline
 90
        2
 70
     0
 10
-192.43457
 20
249.652161
 10
-193.03418
 20
249.305725
  0
LWPOLYLINE
  5
118
100
AcDbEntity
  8
LAYER01
370
    35
390
0
  6
Continuous
 62
   134
100
AcDbPolyline
 90
        2
 70
     0
 10
-193.03418
 20
249.305725
 10
-192.43457
 20
248.95929
  0
LWPOLYLINE
  5
119
100
AcDbEntity
  8
LAYER01
370
    35
390
0
  6
Continuous
 62
   134
100
AcDbPolyline
 90
        2
 70
     0
 10
-187.634277
 20
250.498596
 10
-187.03418
 20
250.152161
  0
LWPOLYLINE
  5
11A
100
AcDbEntity
  8
LAYER01
370
    35
390
0
  6
Continuous
 62
   134
100
AcDbPolyline
 90
        2
 70
     0
 10
-187.03418
 20
250.152161
 10
-187.634277
 20
249.805725
  0
LWPOLYLINE
  5
11B
100
AcDbEntity
  8
LAYER01
370
    35
390
0
  6
Continuous
 62
   134
100
AcDbPolyline
 90
        2
 70
     0
 10
-193.03418
 20
249.305725
 10
-187.03418
 20
250.152161
  0
LWPOLYLINE
  5
11C
100
AcDbEntity
  8
LAYER01
370
    35
390
0
  6
Continuous
 62
   134
100
AcDbPolyline
 90
        2
 70
     0
 10
-192.43457
 20
249.652161
 10
-187.634277
 20
250.498596
  0
LWPOLYLINE
  5
11D
100
AcDbEntity
  8
LAYER01
370
    35
390
0
  6
Continuous
 62
   134
100
AcDbPolyline
 90
        2
 70
     0
 10
-192.43457
 20
248.95929
 10
-187.634277
 20
249.805725
  0
LWPOLYLINE
  5
11E
100
AcDbEntity
  8
LAYER01
370
    35
390
0
  6
Continuous
 62
   134
100
AcDbPolyline
 90
        2
 70
     0
 10
-187.634277
 20
250.498596
 10
-187.634277
 20
251.498596
  0
LWPOLYLINE
  5
11F
100
AcDbEntity
  8
LAYER01
370
    35
390
0
  6
Continuous
 62
   134
100
AcDbPolyline
 90
        2
 70
     0
 10
-192.43457
 20
249.652161
 10
-192.43457
 20
250.652161
  0
LWPOLYLINE
  5
120
100
AcDbEntity
  8
LAYER01
370
    35
390
0
  6
Continuous
 62
   134
100
AcDbPolyline
 90
        2
 70
     0
 10
-192.43457
 20
251.34491
 10
-193.03418
 20
250.998596
  0
LWPOLYLINE
  5
121
100
AcDbEntity
  8
LAYER01
370
    35
390
0
  6
Continuous
 62
   134
100
AcDbPolyline
 90
        2
 70
     0
 10
-193.03418
 20
250.998596
 10
-192.43457
 20
250.652161
  0
LWPOLYLINE
  5
122
100
AcDbEntity
  8
LAYER01
370
    35
390
0
  6
Continuous
 62
   134
100
AcDbPolyline
 90
        2
 70
     0
 10
-187.634277
 20
252.191345
 10
-187.03418
 20
251.84491
  0
LWPOLYLINE
  5
123
100
AcDbEntity
  8
LAYER01
370
    35
390
0
  6
Continuous
 62
   134
100
AcDbPolyline
 90
        2
 70
     0
 10
-187.03418
 20
251.84491
 10
-187.634277
 20
251.498596
  0
LWPOLYLINE
  5
124
100
AcDbEntity
  8
LAYER01
370
    35
390
0
  6
Continuous
 62
   134
100
AcDbPolyline
 90
        2
 70
     0
 10
-193.03418
 20
250.998596
 10
-187.03418
 20
251.84491
  0
LWPOLYLINE
  5
125
100
AcDbEntity
  8
LAYER01
370
    35
390
0
  6
Continuous
 62
   134
100
AcDbPolyline
 90
        2
 70
     0
 10
-192.43457
 20
251.34491
 10
-187.634277
 20
252.191345
  0
LWPOLYLINE
  5
126
100
AcDbEntity
  8
LAYER01
370
    35
390
0
  6
Continuous
 62
   134
100
AcDbPolyline
 90
        2
 70
     0
 10
-192.43457
 20
250.652161
 10
-187.634277
 20
251.498596
  0
LWPOLYLINE
  5
127
100
AcDbEntity
  8
LAYER01
370
    35
390
0
  6
Continuous
 62
   134
100
AcDbPolyline
 90
        2
 70
     0
 10
-187.634277
 20
252.191345
 10
-187.634277
 20
253.191345
  0
LWPOLYLINE
  5
128
100
AcDbEntity
  8
LAYER01
370
    35
390
0
  6
Continuous
 62
   134
100
AcDbPolyline
 90
        2
 70
     0
 10
-192.43457
 20
251.34491
 10
-192.43457
 20
252.34491
  0
LWPOLYLINE
  5
129
100
AcDbEntity
  8
LAYER01
370
    35
390
0
  6
Continuous
 62
   134
100
AcDbPolyline
 90
        2
 70
     0
 10
-192.43457
 20
253.037781
 10
-193.03418
 20
252.691345
  0
LWPOLYLINE
  5
12A
100
AcDbEntity
  8
LAYER01
370
    35
390
0
  6
Continuous
 62
   134
100
AcDbPolyline
 90
        2
 70
     0
 10
-193.03418
 20
252.691345
 10
-192.43457
 20
252.34491
  0
LWPOLYLINE
  5
12B
100
AcDbEntity
  8
LAYER01
370
    35
390
0
  6
Continuous
 62
   134
100
AcDbPolyline
 90
        2
 70
     0
 10
-187.634277
 20
253.884216
 10
-187.03418
 20
253.537781
  0
LWPOLYLINE
  5
12C
100
AcDbEntity
  8
LAYER01
370
    35
390
0
  6
Continuous
 62
   134
100
AcDbPolyline
 90
        2
 70
     0
 10
-187.03418
 20
253.537781
 10
-187.634277
 20
253.191345
  0
LWPOLYLINE
  5
12D
100
AcDbEntity
  8
LAYER01
370
    35
390
0
  6
Continuous
 62
   134
100
AcDbPolyline
 90
        2
 70
     0
 10
-193.03418
 20
252.691345
 10
-187.03418
 20
253.537781
  0
LWPOLYLINE
  5
12E
100
AcDbEntity
  8
LAYER01
370
    35
390
0
  6
Continuous
 62
   134
100
AcDbPolyline
 90
        2
 70
     0
 10
-192.43457
 20
253.037781
 10
-187.634277
 20
253.884216
  0
LWPOLYLINE
  5
12F
100
AcDbEntity
  8
LAYER01
370
    35
390
0
  6
Continuous
 62
   134
100
AcDbPolyline
 90
        2
 70
     0
 10
-192.43457
 20
252.34491
 10
-187.634277
 20
253.191345
  0
LWPOLYLINE
  5
130
100
AcDbEntity
  8
LAYER01
370
    35
390
0
  6
Continuous
 62
   134
100
AcDbPolyline
 90
        2
 70
     0
 10
-187.634277
 20
253.884216
 10
-187.634277
 20
254.884216
  0
LWPOLYLINE
  5
131
100
AcDbEntity
  8
LAYER01
370
    35
390
0
  6
Continuous
 62
   134
100
AcDbPolyline
 90
        2
 70
     0
 10
-192.43457
 20
253.037781
 10
-192.43457
 20
254.037781
  0
LWPOLYLINE
  5
132
100
AcDbEntity
  8
LAYER01
370
    35
390
0
  6
Continuous
 62
   134
100
AcDbPolyline
 90
        2
 70
     0
 10
-192.43457
 20
254.730652
 10
-193.03418
 20
254.384216
  0
LWPOLYLINE
  5
133
100
AcDbEntity
  8
LAYER01
370
    35
390
0
  6
Continuous
 62
   134
100
AcDbPolyline
 90
        2
 70
     0
 10
-193.03418
 20
254.384216
 10
-192.43457
 20
254.037781
  0
LWPOLYLINE
  5
134
100
AcDbEntity
  8
LAYER01
370
    35
390
0
  6
Continuous
 62
   134
100
AcDbPolyline
 90
        2
 70
     0
 10
-187.634277
 20
255.576965
 10
-187.03418
 20
255.230652
  0
LWPOLYLINE
  5
135
100
AcDbEntity
  8
LAYER01
370
    35
390
0
  6
Continuous
 62
   134
100
AcDbPolyline
 90
        2
 70
     0
 10
-187.03418
 20
255.230652
 10
-187.634277
 20
254.884216
  0
LWPOLYLINE
  5
136
100
AcDbEntity
  8
LAYER01
370
    35
390
0
  6
Continuous
 62
   134
100
AcDbPolyline
 90
        2
 70
     0
 10
-193.03418
 20
254.384216
 10
-187.03418
 20
255.230652
  0
LWPOLYLINE
  5
137
100
AcDbEntity
  8
LAYER01
370
    35
390
0
  6
Continuous
 62
   134
100
AcDbPolyline
 90
        2
 70
     0
 10
-192.43457
 20
254.730652
 10
-187.634277
 20
255.576965
  0
LWPOLYLINE
  5
138
100
AcDbEntity
  8
LAYER01
370
    35
390
0
  6
Continuous
 62
   134
100
AcDbPolyline
 90
        2
 70
     0
 10
-192.43457
 20
254.037781
 10
-187.634277
 20
254.884216
  0
LWPOLYLINE
  5
139
100
AcDbEntity
  8
LAYER01
370
    35
390
0
  6
Continuous
 62
   134
100
AcDbPolyline
 90
        2
 70
     0
 10
-187.634277
 20
255.576965
 10
-187.634277
 20
256.576965
  0
LWPOLYLINE
  5
13A
100
AcDbEntity
  8
LAYER01
370
    35
390
0
  6
Continuous
 62
   134
100
AcDbPolyline
 90
        2
 70
     0
 10
-192.43457
 20
254.730652
 10
-192.43457
 20
255.730652
  0
LWPOLYLINE
  5
13B
100
AcDbEntity
  8
LAYER01
370
    35
390
0
  6
Continuous
 62
   134
100
AcDbPolyline
 90
        2
 70
     0
 10
-192.43457
 20
256.423401
 10
-193.03418
 20
256.076965
  0
LWPOLYLINE
  5
13C
100
AcDbEntity
  8
LAYER01
370
    35
390
0
  6
Continuous
 62
   134
100
AcDbPolyline
 90
        2
 70
     0
 10
-193.03418
 20
256.076965
 10
-192.43457
 20
255.730652
  0
LWPOLYLINE
  5
13D
100
AcDbEntity
  8
LAYER01
370
    35
390
0
  6
Continuous
 62
   134
100
AcDbPolyline
 90
        2
 70
     0
 10
-187.634277
 20
257.269836
 10
-187.03418
 20
256.923401
  0
LWPOLYLINE
  5
13E
100
AcDbEntity
  8
LAYER01
370
    35
390
0
  6
Continuous
 62
   134
100
AcDbPolyline
 90
        2
 70
     0
 10
-187.03418
 20
256.923401
 10
-187.634277
 20
256.576965
  0
LWPOLYLINE
  5
13F
100
AcDbEntity
  8
LAYER01
370
    35
390
0
  6
Continuous
 62
   134
100
AcDbPolyline
 90
        2
 70
     0
 10
-193.03418
 20
256.076965
 10
-187.03418
 20
256.923401
  0
LWPOLYLINE
  5
140
100
AcDbEntity
  8
LAYER01
370
    35
390
0
  6
Continuous
 62
   134
100
AcDbPolyline
 90
        2
 70
     0
 10
-192.43457
 20
256.423401
 10
-187.634277
 20
257.269836
  0
LWPOLYLINE
  5
141
100
AcDbEntity
  8
LAYER01
370
    35
390
0
  6
Continuous
 62
   134
100
AcDbPolyline
 90
        2
 70
     0
 10
-192.43457
 20
255.730652
 10
-187.634277
 20
256.576965
  0
LWPOLYLINE
  5
142
100
AcDbEntity
  8
LAYER01
370
    35
390
0
  6
Continuous
 62
   134
100
AcDbPolyline
 90
        2
 70
     0
 10
-187.634277
 20
257.269836
 10
-187.634277
 20
258.269836
  0
LWPOLYLINE
  5
143
100
AcDbEntity
  8
LAYER01
370
    35
390
0
  6
Continuous
 62
   134
100
AcDbPolyline
 90
        2
 70
     0
 10
-192.43457
 20
256.423401
 10
-192.43457
 20
257.423401
  0
LWPOLYLINE
  5
144
100
AcDbEntity
  8
LAYER01
370
    35
390
0
  6
Continuous
 62
   134
100
AcDbPolyline
 90
        2
 70
     0
 10
-192.43457
 20
258.116272
 10
-193.03418
 20
257.769836
  0
LWPOLYLINE
  5
145
100
AcDbEntity
  8
LAYER01
370
    35
390
0
  6
Continuous
 62
   134
100
AcDbPolyline
 90
        2
 70
     0
 10
-193.03418
 20
257.769836
 10
-192.43457
 20
257.423401
  0
LWPOLYLINE
  5
146
100
AcDbEntity
  8
LAYER01
370
    35
390
0
  6
Continuous
 62
   134
100
AcDbPolyline
 90
        2
 70
     0
 10
-187.634277
 20
258.962585
 10
-187.03418
 20
258.616272
  0
LWPOLYLINE
  5
147
100
AcDbEntity
  8
LAYER01
370
    35
390
0
  6
Continuous
 62
   134
100
AcDbPolyline
 90
        2
 70
     0
 10
-187.03418
 20
258.616272
 10
-187.634277
 20
258.269836
  0
LWPOLYLINE
  5
148
100
AcDbEntity
  8
LAYER01
370
    35
390
0
  6
Continuous
 62
   134
100
AcDbPolyline
 90
        2
 70
     0
 10
-193.03418
 20
257.769836
 10
-187.03418
 20
258.616272
  0
LWPOLYLINE
  5
149
100
AcDbEntity
  8
LAYER01
370
    35
390
0
  6
Continuous
 62
   134
100
AcDbPolyline
 90
        2
 70
     0
 10
-192.43457
 20
258.116272
 10
-187.634277
 20
258.962585
  0
LWPOLYLINE
  5
14A
100
AcDbEntity
  8
LAYER01
370
    35
390
0
  6
Continuous
 62
   134
100
AcDbPolyline
 90
        2
 70
     0
 10
-192.43457
 20
257.423401
 10
-187.634277
 20
258.269836
  0
LWPOLYLINE
  5
14B
100
AcDbEntity
  8
LAYER01
370
    35
390
0
  6
Continuous
 62
   134
100
AcDbPolyline
 90
        2
 70
     0
 10
-187.634277
 20
258.962585
 10
-187.634277
 20
266.670227
  0
LWPOLYLINE
  5
14C
100
AcDbEntity
  8
LAYER01
370
    35
390
0
  6
Continuous
 62
   134
100
AcDbPolyline
 90
        2
 70
     0
 10
-192.43457
 20
258.116272
 10
-192.43457
 20
266.670227
  0
LWPOLYLINE
  5
14D
100
AcDbEntity
  8
LAYER01
370
    35
390
0
  6
Continuous
 62
   134
100
AcDbPolyline
 90
        2
 70
     0
 10
-187.634277
 20
266.670227
 10
-182.081543
 20
272.223083
  0
LWPOLYLINE
  5
14E
100
AcDbEntity
  8
LAYER01
370
    35
390
0
  6
Continuous
 62
   134
100
AcDbPolyline
 90
        2
 70
     0
 10
-192.448242
 20
266.670227
 10
-198.692383
 20
272.91449
  0
LWPOLYLINE
  5
14F
100
AcDbEntity
  8
LAYER01
370
    35
390
0
  6
Continuous
 62
   134
100
AcDbPolyline
 90
        2
 70
     0
 10
-192.448242
 20
266.670227
 10
-187.634277
 20
266.670227
  0
LWPOLYLINE
  5
150
100
AcDbEntity
  8
LAYER01
370
    25
390
0
  6
DASHDOT
 62
    92
100
AcDbPolyline
 90
        2
 70
     0
 10
-42.544922
 20
213.429626
 10
-42.544922
 20
273.888367
  0
LWPOLYLINE
  5
151
100
AcDbEntity
  8
LAYER01
370
    35
390
0
  6
Continuous
 62
   134
100
AcDbPolyline
 90
        2
 70
     0
 10
-45.538086
 20
231.440613
 10
-42.336426
 20
231.892273
  0
LWPOLYLINE
  5
152
100
AcDbEntity
  8
LAYER01
370
    35
390
0
  6
Continuous
 62
   134
100
AcDbPolyline
 90
        2
 70
     0
 10
-44.937988
 20
231.787048
 10
-42.336426
 20
232.245789
  0
LWPOLYLINE
  5
153
100
AcDbEntity
  8
LAYER01
370
    35
390
0
  6
Continuous
 62
   134
100
AcDbPolyline
 90
        2
 70
     0
 10
-44.937988
 20
233.479919
 10
-44.937988
 20
234.479919
  0
LWPOLYLINE
  5
154
100
AcDbEntity
  8
LAYER01
370
    35
390
0
  6
Continuous
 62
   134
100
AcDbPolyline
 90
        2
 70
     0
 10
-44.937988
 20
232.787048
 10
-45.538086
 20
233.133484
  0
LWPOLYLINE
  5
155
100
AcDbEntity
  8
LAYER01
370
    35
390
0
  6
Continuous
 62
   134
100
AcDbPolyline
 90
        2
 70
     0
 10
-45.538086
 20
233.133484
 10
-44.937988
 20
233.479919
  0
LWPOLYLINE
  5
156
100
AcDbEntity
  8
LAYER01
370
    35
390
0
  6
Continuous
 62
   134
100
AcDbPolyline
 90
        2
 70
     0
 10
-44.937988
 20
235.172668
 10
-45.538086
 20
234.826233
  0
LWPOLYLINE
  5
157
100
AcDbEntity
  8
LAYER01
370
    35
390
0
  6
Continuous
 62
   134
100
AcDbPolyline
 90
        2
 70
     0
 10
-45.538086
 20
234.826233
 10
-44.937988
 20
234.479919
  0
LWPOLYLINE
  5
158
100
AcDbEntity
  8
LAYER01
370
    35
390
0
  6
Continuous
 62
   134
100
AcDbPolyline
 90
        2
 70
     0
 10
-45.538086
 20
233.133484
 10
-42.336426
 20
233.585144
  0
LWPOLYLINE
  5
159
100
AcDbEntity
  8
LAYER01
370
    35
390
0
  6
Continuous
 62
   134
100
AcDbPolyline
 90
        2
 70
     0
 10
-44.937988
 20
233.479919
 10
-42.336426
 20
233.93866
  0
LWPOLYLINE
  5
15A
100
AcDbEntity
  8
LAYER01
370
    35
390
0
  6
Continuous
 62
   134
100
AcDbPolyline
 90
        2
 70
     0
 10
-44.937988
 20
232.787048
 10
-42.336426
 20
233.245789
  0
LWPOLYLINE
  5
15B
100
AcDbEntity
  8
LAYER01
370
    35
390
0
  6
Continuous
 62
   134
100
AcDbPolyline
 90
        2
 70
     0
 10
-45.538086
 20
234.826233
 10
-42.336426
 20
235.277893
  0
LWPOLYLINE
  5
15C
100
AcDbEntity
  8
LAYER01
370
    35
390
0
  6
Continuous
 62
   134
100
AcDbPolyline
 90
        2
 70
     0
 10
-44.937988
 20
235.172668
 10
-42.336426
 20
235.631409
  0
LWPOLYLINE
  5
15D
100
AcDbEntity
  8
LAYER01
370
    35
390
0
  6
Continuous
 62
   134
100
AcDbPolyline
 90
        2
 70
     0
 10
-44.937988
 20
234.479919
 10
-42.336426
 20
234.93866
  0
LWPOLYLINE
  5
15E
100
AcDbEntity
  8
LAYER01
370
    35
390
0
  6
Continuous
 62
   134
100
AcDbPolyline
 90
        2
 70
     0
 10
-44.937988
 20
232.787048
 10
-44.937988
 20
231.787048
  0
LWPOLYLINE
  5
15F
100
AcDbEntity
  8
LAYER01
370
    35
390
0
  6
Continuous
 62
   134
100
AcDbPolyline
 90
        2
 70
     0
 10
-44.937988
 20
235.172668
 10
-44.937988
 20
236.172668
  0
LWPOLYLINE
  5
160
100
AcDbEntity
  8
LAYER01
370
    35
390
0
  6
Continuous
 62
   134
100
AcDbPolyline
 90
        2
 70
     0
 10
-44.937988
 20
236.86554
 10
-44.937988
 20
237.86554
  0
LWPOLYLINE
  5
161
100
AcDbEntity
  8
LAYER01
370
    35
390
0
  6
Continuous
 62
   134
100
AcDbPolyline
 90
        2
 70
     0
 10
-44.937988
 20
236.172668
 10
-45.538086
 20
236.519104
  0
LWPOLYLINE
  5
162
100
AcDbEntity
  8
LAYER01
370
    35
390
0
  6
Continuous
 62
   134
100
AcDbPolyline
 90
        2
 70
     0
 10
-45.538086
 20
236.519104
 10
-44.937988
 20
236.86554
  0
LWPOLYLINE
  5
163
100
AcDbEntity
  8
LAYER01
370
    35
390
0
  6
Continuous
 62
   134
100
AcDbPolyline
 90
        2
 70
     0
 10
-44.937988
 20
238.558289
 10
-45.538086
 20
238.211975
  0
LWPOLYLINE
  5
164
100
AcDbEntity
  8
LAYER01
370
    35
390
0
  6
Continuous
 62
   134
100
AcDbPolyline
 90
        2
 70
     0
 10
-45.538086
 20
238.211975
 10
-44.937988
 20
237.86554
  0
LWPOLYLINE
  5
165
100
AcDbEntity
  8
LAYER01
370
    35
390
0
  6
Continuous
 62
   134
100
AcDbPolyline
 90
        2
 70
     0
 10
-45.538086
 20
236.519104
 10
-42.336426
 20
236.970764
  0
LWPOLYLINE
  5
166
100
AcDbEntity
  8
LAYER01
370
    35
390
0
  6
Continuous
 62
   134
100
AcDbPolyline
 90
        2
 70
     0
 10
-44.937988
 20
236.86554
 10
-42.336426
 20
237.32428
  0
LWPOLYLINE
  5
167
100
AcDbEntity
  8
LAYER01
370
    35
390
0
  6
Continuous
 62
   134
100
AcDbPolyline
 90
        2
 70
     0
 10
-44.937988
 20
236.172668
 10
-42.336426
 20
236.631409
  0
LWPOLYLINE
  5
168
100
AcDbEntity
  8
LAYER01
370
    35
390
0
  6
Continuous
 62
   134
100
AcDbPolyline
 90
        2
 70
     0
 10
-45.538086
 20
238.211975
 10
-42.336426
 20
238.663513
  0
LWPOLYLINE
  5
169
100
AcDbEntity
  8
LAYER01
370
    35
390
0
  6
Continuous
 62
   134
100
AcDbPolyline
 90
        2
 70
     0
 10
-44.937988
 20
238.558289
 10
-42.336426
 20
239.017029
  0
LWPOLYLINE
  5
16A
100
AcDbEntity
  8
LAYER01
370
    35
390
0
  6
Continuous
 62
   134
100
AcDbPolyline
 90
        2
 70
     0
 10
-44.937988
 20
237.86554
 10
-42.336426
 20
238.32428
  0
LWPOLYLINE
  5
16B
100
AcDbEntity
  8
LAYER01
370
    35
390
0
  6
Continuous
 62
   134
100
AcDbPolyline
 90
        2
 70
     0
 10
-44.937988
 20
240.25116
 10
-44.937988
 20
241.25116
  0
LWPOLYLINE
  5
16C
100
AcDbEntity
  8
LAYER01
370
    35
390
0
  6
Continuous
 62
   134
100
AcDbPolyline
 90
        2
 70
     0
 10
-44.937988
 20
239.558289
 10
-45.538086
 20
239.904724
  0
LWPOLYLINE
  5
16D
100
AcDbEntity
  8
LAYER01
370
    35
390
0
  6
Continuous
 62
   134
100
AcDbPolyline
 90
        2
 70
     0
 10
-45.538086
 20
239.904724
 10
-44.937988
 20
240.25116
  0
LWPOLYLINE
  5
16E
100
AcDbEntity
  8
LAYER01
370
    35
390
0
  6
Continuous
 62
   134
100
AcDbPolyline
 90
        2
 70
     0
 10
-44.937988
 20
241.944031
 10
-45.538086
 20
241.597595
  0
LWPOLYLINE
  5
16F
100
AcDbEntity
  8
LAYER01
370
    35
390
0
  6
Continuous
 62
   134
100
AcDbPolyline
 90
        2
 70
     0
 10
-45.538086
 20
241.597595
 10
-44.937988
 20
241.25116
  0
LWPOLYLINE
  5
170
100
AcDbEntity
  8
LAYER01
370
    35
390
0
  6
Continuous
 62
   134
100
AcDbPolyline
 90
        2
 70
     0
 10
-45.538086
 20
239.904724
 10
-42.336426
 20
240.356384
  0
LWPOLYLINE
  5
171
100
AcDbEntity
  8
LAYER01
370
    35
390
0
  6
Continuous
 62
   134
100
AcDbPolyline
 90
        2
 70
     0
 10
-44.937988
 20
240.25116
 10
-42.336426
 20
240.7099
  0
LWPOLYLINE
  5
172
100
AcDbEntity
  8
LAYER01
370
    35
390
0
  6
Continuous
 62
   134
100
AcDbPolyline
 90
        2
 70
     0
 10
-44.937988
 20
239.558289
 10
-42.336426
 20
240.017029
  0
LWPOLYLINE
  5
173
100
AcDbEntity
  8
LAYER01
370
    35
390
0
  6
Continuous
 62
   134
100
AcDbPolyline
 90
        2
 70
     0
 10
-45.538086
 20
241.597595
 10
-42.336426
 20
242.049255
  0
LWPOLYLINE
  5
174
100
AcDbEntity
  8
LAYER01
370
    35
390
0
  6
Continuous
 62
   134
100
AcDbPolyline
 90
        2
 70
     0
 10
-44.937988
 20
241.944031
 10
-42.336426
 20
242.402771
  0
LWPOLYLINE
  5
175
100
AcDbEntity
  8
LAYER01
370
    35
390
0
  6
Continuous
 62
   134
100
AcDbPolyline
 90
        2
 70
     0
 10
-44.937988
 20
241.25116
 10
-42.336426
 20
241.7099
  0
LWPOLYLINE
  5
176
100
AcDbEntity
  8
LAYER01
370
    35
390
0
  6
Continuous
 62
   134
100
AcDbPolyline
 90
        2
 70
     0
 10
-44.937988
 20
238.558289
 10
-44.937988
 20
239.558289
  0
LWPOLYLINE
  5
177
100
AcDbEntity
  8
LAYER01
370
    35
390
0
  6
Continuous
 62
   134
100
AcDbPolyline
 90
        2
 70
     0
 10
-44.937988
 20
243.63678
 10
-44.937988
 20
244.63678
  0
LWPOLYLINE
  5
178
100
AcDbEntity
  8
LAYER01
370
    35
390
0
  6
Continuous
 62
   134
100
AcDbPolyline
 90
        2
 70
     0
 10
-44.937988
 20
242.944031
 10
-45.538086
 20
243.290344
  0
LWPOLYLINE
  5
179
100
AcDbEntity
  8
LAYER01
370
    35
390
0
  6
Continuous
 62
   134
100
AcDbPolyline
 90
        2
 70
     0
 10
-45.538086
 20
243.290344
 10
-44.937988
 20
243.63678
  0
LWPOLYLINE
  5
17A
100
AcDbEntity
  8
LAYER01
370
    35
390
0
  6
Continuous
 62
   134
100
AcDbPolyline
 90
        2
 70
     0
 10
-44.937988
 20
245.329651
 10
-45.538086
 20
244.983215
  0
LWPOLYLINE
  5
17B
100
AcDbEntity
  8
LAYER01
370
    35
390
0
  6
Continuous
 62
   134
100
AcDbPolyline
 90
        2
 70
     0
 10
-45.538086
 20
244.983215
 10
-44.937988
 20
244.63678
  0
LWPOLYLINE
  5
17C
100
AcDbEntity
  8
LAYER01
370
    35
390
0
  6
Continuous
 62
   134
100
AcDbPolyline
 90
        2
 70
     0
 10
-45.538086
 20
243.290344
 10
-42.336426
 20
243.742004
  0
LWPOLYLINE
  5
17D
100
AcDbEntity
  8
LAYER01
370
    35
390
0
  6
Continuous
 62
   134
100
AcDbPolyline
 90
        2
 70
     0
 10
-44.937988
 20
243.63678
 10
-42.336426
 20
244.09552
  0
LWPOLYLINE
  5
17E
100
AcDbEntity
  8
LAYER01
370
    35
390
0
  6
Continuous
 62
   134
100
AcDbPolyline
 90
        2
 70
     0
 10
-44.937988
 20
242.944031
 10
-42.336426
 20
243.402771
  0
LWPOLYLINE
  5
17F
100
AcDbEntity
  8
LAYER01
370
    35
390
0
  6
Continuous
 62
   134
100
AcDbPolyline
 90
        2
 70
     0
 10
-45.538086
 20
244.983215
 10
-42.336426
 20
245.434875
  0
LWPOLYLINE
  5
180
100
AcDbEntity
  8
LAYER01
370
    35
390
0
  6
Continuous
 62
   134
100
AcDbPolyline
 90
        2
 70
     0
 10
-44.937988
 20
245.329651
 10
-42.336426
 20
245.788391
  0
LWPOLYLINE
  5
181
100
AcDbEntity
  8
LAYER01
370
    35
390
0
  6
Continuous
 62
   134
100
AcDbPolyline
 90
        2
 70
     0
 10
-44.937988
 20
244.63678
 10
-42.336426
 20
245.09552
  0
LWPOLYLINE
  5
182
100
AcDbEntity
  8
LAYER01
370
    35
390
0
  6
Continuous
 62
   134
100
AcDbPolyline
 90
        2
 70
     0
 10
-44.937988
 20
242.944031
 10
-44.937988
 20
241.944031
  0
LWPOLYLINE
  5
183
100
AcDbEntity
  8
LAYER01
370
    35
390
0
  6
Continuous
 62
   134
100
AcDbPolyline
 90
        2
 70
     0
 10
-44.937988
 20
245.329651
 10
-44.937988
 20
246.329651
  0
LWPOLYLINE
  5
184
100
AcDbEntity
  8
LAYER01
370
    35
390
0
  6
Continuous
 62
   134
100
AcDbPolyline
 90
        2
 70
     0
 10
-44.937988
 20
247.0224
 10
-45.538086
 20
246.676086
  0
LWPOLYLINE
  5
185
100
AcDbEntity
  8
LAYER01
370
    35
390
0
  6
Continuous
 62
   134
100
AcDbPolyline
 90
        2
 70
     0
 10
-45.538086
 20
246.676086
 10
-44.937988
 20
246.329651
  0
LWPOLYLINE
  5
186
100
AcDbEntity
  8
LAYER01
370
    35
390
0
  6
Continuous
 62
   134
100
AcDbPolyline
 90
        2
 70
     0
 10
-45.538086
 20
246.676086
 10
-42.336426
 20
247.127625
  0
LWPOLYLINE
  5
187
100
AcDbEntity
  8
LAYER01
370
    35
390
0
  6
Continuous
 62
   134
100
AcDbPolyline
 90
        2
 70
     0
 10
-44.937988
 20
247.0224
 10
-42.336426
 20
247.48114
  0
LWPOLYLINE
  5
188
100
AcDbEntity
  8
LAYER01
370
    35
390
0
  6
Continuous
 62
   134
100
AcDbPolyline
 90
        2
 70
     0
 10
-44.937988
 20
246.329651
 10
-42.336426
 20
246.788391
  0
LWPOLYLINE
  5
189
100
AcDbEntity
  8
LAYER01
370
    35
390
0
  6
Continuous
 62
   134
100
AcDbPolyline
 90
        2
 70
     0
 10
-44.937988
 20
247.0224
 10
-44.937988
 20
248.0224
  0
LWPOLYLINE
  5
18A
100
AcDbEntity
  8
LAYER01
370
    35
390
0
  6
Continuous
 62
   134
100
AcDbPolyline
 90
        2
 70
     0
 10
-44.937988
 20
248.715271
 10
-45.538086
 20
248.368835
  0
LWPOLYLINE
  5
18B
100
AcDbEntity
  8
LAYER01
370
    35
390
0
  6
Continuous
 62
   134
100
AcDbPolyline
 90
        2
 70
     0
 10
-45.538086
 20
248.368835
 10
-44.937988
 20
248.0224
  0
LWPOLYLINE
  5
18C
100
AcDbEntity
  8
LAYER01
370
    35
390
0
  6
Continuous
 62
   134
100
AcDbPolyline
 90
        2
 70
     0
 10
-45.538086
 20
248.368835
 10
-42.336426
 20
248.820496
  0
LWPOLYLINE
  5
18D
100
AcDbEntity
  8
LAYER01
370
    35
390
0
  6
Continuous
 62
   134
100
AcDbPolyline
 90
        2
 70
     0
 10
-44.937988
 20
248.715271
 10
-42.336426
 20
249.174011
  0
LWPOLYLINE
  5
18E
100
AcDbEntity
  8
LAYER01
370
    35
390
0
  6
Continuous
 62
   134
100
AcDbPolyline
 90
        2
 70
     0
 10
-44.937988
 20
248.0224
 10
-42.336426
 20
248.48114
  0
LWPOLYLINE
  5
18F
100
AcDbEntity
  8
LAYER01
370
    35
390
0
  6
Continuous
 62
   134
100
AcDbPolyline
 90
        2
 70
     0
 10
-44.937988
 20
248.715271
 10
-44.937988
 20
249.715271
  0
LWPOLYLINE
  5
190
100
AcDbEntity
  8
LAYER01
370
    35
390
0
  6
Continuous
 62
   134
100
AcDbPolyline
 90
        2
 70
     0
 10
-44.937988
 20
250.408142
 10
-45.538086
 20
250.061707
  0
LWPOLYLINE
  5
191
100
AcDbEntity
  8
LAYER01
370
    35
390
0
  6
Continuous
 62
   134
100
AcDbPolyline
 90
        2
 70
     0
 10
-45.538086
 20
250.061707
 10
-44.937988
 20
249.715271
  0
LWPOLYLINE
  5
192
100
AcDbEntity
  8
LAYER01
370
    35
390
0
  6
Continuous
 62
   134
100
AcDbPolyline
 90
        2
 70
     0
 10
-45.538086
 20
250.061707
 10
-42.336426
 20
250.513367
  0
LWPOLYLINE
  5
193
100
AcDbEntity
  8
LAYER01
370
    35
390
0
  6
Continuous
 62
   134
100
AcDbPolyline
 90
        2
 70
     0
 10
-44.937988
 20
250.408142
 10
-42.336426
 20
250.866882
  0
LWPOLYLINE
  5
194
100
AcDbEntity
  8
LAYER01
370
    35
390
0
  6
Continuous
 62
   134
100
AcDbPolyline
 90
        2
 70
     0
 10
-44.937988
 20
249.715271
 10
-42.336426
 20
250.174011
  0
LWPOLYLINE
  5
195
100
AcDbEntity
  8
LAYER01
370
    35
390
0
  6
Continuous
 62
   134
100
AcDbPolyline
 90
        2
 70
     0
 10
-44.937988
 20
250.408142
 10
-44.937988
 20
251.408142
  0
LWPOLYLINE
  5
196
100
AcDbEntity
  8
LAYER01
370
    35
390
0
  6
Continuous
 62
   134
100
AcDbPolyline
 90
        2
 70
     0
 10
-44.937988
 20
252.100891
 10
-45.538086
 20
251.754456
  0
LWPOLYLINE
  5
197
100
AcDbEntity
  8
LAYER01
370
    35
390
0
  6
Continuous
 62
   134
100
AcDbPolyline
 90
        2
 70
     0
 10
-45.538086
 20
251.754456
 10
-44.937988
 20
251.408142
  0
LWPOLYLINE
  5
198
100
AcDbEntity
  8
LAYER01
370
    35
390
0
  6
Continuous
 62
   134
100
AcDbPolyline
 90
        2
 70
     0
 10
-45.538086
 20
251.754456
 10
-42.336426
 20
252.206116
  0
LWPOLYLINE
  5
199
100
AcDbEntity
  8
LAYER01
370
    35
390
0
  6
Continuous
 62
   134
100
AcDbPolyline
 90
        2
 70
     0
 10
-44.937988
 20
252.100891
 10
-42.336426
 20
252.559631
  0
LWPOLYLINE
  5
19A
100
AcDbEntity
  8
LAYER01
370
    35
390
0
  6
Continuous
 62
   134
100
AcDbPolyline
 90
        2
 70
     0
 10
-44.937988
 20
251.408142
 10
-42.336426
 20
251.866882
  0
LWPOLYLINE
  5
19B
100
AcDbEntity
  8
LAYER01
370
    35
390
0
  6
Continuous
 62
   134
100
AcDbPolyline
 90
        2
 70
     0
 10
-44.937988
 20
252.100891
 10
-44.937988
 20
253.100891
  0
LWPOLYLINE
  5
19C
100
AcDbEntity
  8
LAYER01
370
    35
390
0
  6
Continuous
 62
   134
100
AcDbPolyline
 90
        2
 70
     0
 10
-44.937988
 20
253.793762
 10
-45.538086
 20
253.447327
  0
LWPOLYLINE
  5
19D
100
AcDbEntity
  8
LAYER01
370
    35
390
0
  6
Continuous
 62
   134
100
AcDbPolyline
 90
        2
 70
     0
 10
-45.538086
 20
253.447327
 10
-44.937988
 20
253.100891
  0
LWPOLYLINE
  5
19E
100
AcDbEntity
  8
LAYER01
370
    35
390
0
  6
Continuous
 62
   134
100
AcDbPolyline
 90
        2
 70
     0
 10
-45.538086
 20
253.447327
 10
-42.336426
 20
253.898987
  0
LWPOLYLINE
  5
19F
100
AcDbEntity
  8
LAYER01
370
    35
390
0
  6
Continuous
 62
   134
100
AcDbPolyline
 90
        2
 70
     0
 10
-44.937988
 20
253.793762
 10
-42.336426
 20
254.252502
  0
LWPOLYLINE
  5
1A0
100
AcDbEntity
  8
LAYER01
370
    35
390
0
  6
Continuous
 62
   134
100
AcDbPolyline
 90
        2
 70
     0
 10
-44.937988
 20
253.100891
 10
-42.336426
 20
253.559631
  0
LWPOLYLINE
  5
1A1
100
AcDbEntity
  8
LAYER01
370
    35
390
0
  6
Continuous
 62
   134
100
AcDbPolyline
 90
        2
 70
     0
 10
-44.937988
 20
253.793762
 10
-44.937988
 20
254.793762
  0
LWPOLYLINE
  5
1A2
100
AcDbEntity
  8
LAYER01
370
    35
390
0
  6
Continuous
 62
   134
100
AcDbPolyline
 90
        2
 70
     0
 10
-44.937988
 20
255.486511
 10
-45.538086
 20
255.140076
  0
LWPOLYLINE
  5
1A3
100
AcDbEntity
  8
LAYER01
370
    35
390
0
  6
Continuous
 62
   134
100
AcDbPolyline
 90
        2
 70
     0
 10
-45.538086
 20
255.140076
 10
-44.937988
 20
254.793762
  0
LWPOLYLINE
  5
1A4
100
AcDbEntity
  8
LAYER01
370
    35
390
0
  6
Continuous
 62
   134
100
AcDbPolyline
 90
        2
 70
     0
 10
-45.538086
 20
255.140076
 10
-42.336426
 20
255.591736
  0
LWPOLYLINE
  5
1A5
100
AcDbEntity
  8
LAYER01
370
    35
390
0
  6
Continuous
 62
   134
100
AcDbPolyline
 90
        2
 70
     0
 10
-44.937988
 20
255.486511
 10
-42.336426
 20
255.945251
  0
LWPOLYLINE
  5
1A6
100
AcDbEntity
  8
LAYER01
370
    35
390
0
  6
Continuous
 62
   134
100
AcDbPolyline
 90
        2
 70
     0
 10
-44.937988
 20
254.793762
 10
-42.336426
 20
255.252502
  0
LWPOLYLINE
  5
1A7
100
AcDbEntity
  8
LAYER01
370
    35
390
0
  6
Continuous
 62
   134
100
AcDbPolyline
 90
        2
 70
     0
 10
-44.937988
 20
255.486511
 10
-44.937988
 20
256.486511
  0
LWPOLYLINE
  5
1A8
100
AcDbEntity
  8
LAYER01
370
    35
390
0
  6
Continuous
 62
   134
100
AcDbPolyline
 90
        2
 70
     0
 10
-44.937988
 20
257.179382
 10
-45.538086
 20
256.832947
  0
LWPOLYLINE
  5
1A9
100
AcDbEntity
  8
LAYER01
370
    35
390
0
  6
Continuous
 62
   134
100
AcDbPolyline
 90
        2
 70
     0
 10
-45.538086
 20
256.832947
 10
-44.937988
 20
256.486511
  0
LWPOLYLINE
  5
1AA
100
AcDbEntity
  8
LAYER01
370
    35
390
0
  6
Continuous
 62
   134
100
AcDbPolyline
 90
        2
 70
     0
 10
-45.538086
 20
256.832947
 10
-42.336426
 20
257.284607
  0
LWPOLYLINE
  5
1AB
100
AcDbEntity
  8
LAYER01
370
    35
390
0
  6
Continuous
 62
   134
100
AcDbPolyline
 90
        2
 70
     0
 10
-44.937988
 20
257.179382
 10
-42.336426
 20
257.638123
  0
LWPOLYLINE
  5
1AC
100
AcDbEntity
  8
LAYER01
370
    35
390
0
  6
Continuous
 62
   134
100
AcDbPolyline
 90
        2
 70
     0
 10
-44.937988
 20
256.486511
 10
-42.336426
 20
256.945251
  0
LWPOLYLINE
  5
1AD
100
AcDbEntity
  8
LAYER01
370
    35
390
0
  6
Continuous
 62
   134
100
AcDbPolyline
 90
        2
 70
     0
 10
-44.937988
 20
257.179382
 10
-44.937988
 20
265.733337
  0
LWPOLYLINE
  5
1AE
100
AcDbEntity
  8
LAYER01
370
    35
390
0
  6
Continuous
 62
   134
100
AcDbPolyline
 90
        2
 70
     0
 10
-44.952148
 20
265.733337
 10
-51.196289
 20
271.977722
  0
LWPOLYLINE
  5
1AF
100
AcDbEntity
  8
LAYER01
370
    35
390
0
  6
Continuous
 62
   134
100
AcDbPolyline
 90
        2
 70
     0
 10
-44.952148
 20
265.733337
 10
-42.336426
 20
265.733337
  0
LWPOLYLINE
  5
1B0
100
AcDbEntity
  8
LAYER01
370
    25
390
0
  6
Continuous
 62
    92
100
AcDbPolyline
 90
        2
 70
     0
 10
-367.049316
 20
249.779114
 10
-42.336426
 20
266.536682
  0
LWPOLYLINE
  5
1B1
100
AcDbEntity
  8
LAYER01
370
    25
390
0
  6
Continuous
 62
    92
100
AcDbPolyline
 90
        2
 70
     0
 10
-42.336426
 20
248.885193
 10
-366.281738
 20
271.765686
  0
LWPOLYLINE
  5
1B2
100
AcDbEntity
  8
LAYER01
370
    25
390
0
  6
Continuous
 62
    92
100
AcDbPolyline
 90
        2
 70
     0
 10
-215.0
 20
248.3526
 10
-42.336426
 20
232.580017
  0
LWPOLYLINE
  5
1B3
100
AcDbEntity
  8
LAYER01
370
    25
390
0
  6
Continuous
 62
    92
100
AcDbPolyline
 90
        2
 70
     0
 10
-42.336426
 20
243.667542
 10
-215.0
 20
229.487366
  0
LWPOLYLINE
  5
1B4
100
AcDbEntity
  8
LAYER01
370
    25
390
0
  6
Continuous
 62
    92
100
AcDbPolyline
 90
        2
 70
     0
 10
-200.0
 20
81.651428
 10
-205.0
 20
171.651428
  0
LWPOLYLINE
  5
1B5
100
AcDbEntity
  8
LAYER01
370
    25
390
0
  6
Continuous
 62
    92
100
AcDbPolyline
 90
        2
 70
     0
 10
-200.0
 20
171.651428
 10
-205.0
 20
81.651428
  0
LWPOLYLINE
  5
1B6
100
AcDbEntity
  8
LAYER01
370
    35
390
0
  6
Continuous
 62
   134
100
AcDbPolyline
 90
        4
 70
     1
 10
-205.0
 20
81.651428
 10
-205.0
 20
171.651428
 10
-200.0
 20
171.651428
 10
-200.0
 20
81.651428
  0
INSERT
  5
1BC
100
AcDbEntity
  8
LAYER01
390
0
100
AcDbBlockReference
  2
N7976_TV_U_89
 10
-310.0
 20
145.651489
 30
0.0
 50
180.0
  0
INSERT
  5
1C2
100
AcDbEntity
  8
LAYER01
390
0
100
AcDbBlockReference
  2
N7976_TV_U_892
 10
-310.0
 20
107.651489
 30
0.0
 50
180.0
  0
LWPOLYLINE
  5
1C3
100
AcDbEntity
  8
LAYER01
370
    35
390
0
  6
Continuous
 62
   134
100
AcDbPolyline
 90
        2
 70
     0
 10
-367.674316
 20
232.717957
 10
-367.674316
 20
233.717957
  0
LWPOLYLINE
  5
1C4
100
AcDbEntity
  8
LAYER01
370
    25
390
0
  6
Continuous
 62
    92
100
AcDbPolyline
 90
        2
 70
     0
 10
-300.0
 20
229.487366
 10
-300.0
 20
-0.000061
  0
INSERT
  5
223
100
AcDbEntity
  8
LAYER01
390
0
100
AcDbBlockReference
  2
1_115_FV_U_89
 10
-205.0
 20
126.651489
 30
0.0
 50
180.0
  0
INSERT
  5
23A
100
AcDbEntity
  8
LAYER01
390
0
100
AcDbBlockReference
  2
X80_F_US_U_M_89
 10
-211.0
 20
126.651489
 30
0.0
 50
180.0
  0
LWPOLYLINE
  5
23B
100
AcDbEntity
  8
LAYER01
370
    35
390
0
  6
Continuous
 62
   134
100
AcDbPolyline
 90
        4
 70
     1
 10
-211.0
 20
114.651428
 10
-211.0
 20
138.651428
 10
-209.0
 20
138.651428
 10
-209.0
 20
114.651428
  0
LWPOLYLINE
  5
23C
100
AcDbEntity
  8
LAYER01
370
    25
390
0
  6
Continuous
 62
    92
100
AcDbPolyline
 90
        2
 70
     0
 10
-300.0
 20
76.651428
 10
-300.0
 20
-0.000061
  0
LWPOLYLINE
  5
23D
100
AcDbEntity
  8
LAYER01
370
    25
390
0
  6
Continuous
 62
    92
100
AcDbPolyline
 90
        4
 70
     0
 10
-280.854492
 20
36.496887
 10
-218.317383
 20
22.314148
 42
1.252166
 10
-218.317383
 20
51.571228
 10
-280.868652
 20
37.385315
  0
LWPOLYLINE
  5
23E
100
AcDbEntity
  8
LAYER01
370
    25
390
0
  6
Continuous
 62
    92
100
AcDbPolyline
 90
        2
 70
     0
 10
-280.868652
 20
37.385315
 42
-1.266056
 10
-281.181152
 20
66.574524
  0
LWPOLYLINE
  5
23F
100
AcDbEntity
  8
LAYER01
370
    25
390
0
  6
Continuous
 62
    92
100
AcDbPolyline
 90
        5
 70
     0
 10
-281.182129
 20
66.571228
 10
-218.317383
 20
52.314148
 42
1.252166
 10
-218.317383
 20
81.571228
 10
-281.182129
 20
67.31427
 42
-0.47519
 10
-299.49707
 20
81.651428
  0
LWPOLYLINE
  5
240
100
AcDbEntity
  8
LAYER01
370
    25
390
0
  6
Continuous
 62
    92
100
AcDbPolyline
 90
        2
 70
     0
 10
-281.182129
 20
6.571228
 10
-252.207031
 20
-0.000061
  0
LWPOLYLINE
  5
241
100
AcDbEntity
  8
LAYER01
370
    25
390
0
  6
Continuous
 62
    92
100
AcDbPolyline
 90
        4
 70
     0
 10
-201.703613
 20
0.000061
 42
0.639206
 10
-218.317383
 20
21.571106
 10
-281.182129
 20
7.31427
 42
-1.266686
 10
-280.855469
 20
36.493225
  0
LWPOLYLINE
  5
242
100
AcDbEntity
  8
LAYER01
370
    25
390
0
  6
Continuous
 62
    92
100
AcDbPolyline
 90
        5
 70
     0
 10
-281.182129
 20
201.395935
 10
-218.317383
 20
187.138855
 42
1.252166
 10
-218.317383
 20
216.395935
 10
-281.182129
 20
202.138977
 42
-0.844875
 10
-292.449707
 20
229.487488
  0
LWPOLYLINE
  5
243
100
AcDbEntity
  8
LAYER01
370
    25
390
0
  6
Continuous
 62
    92
100
AcDbPolyline
 90
        4
 70
     0
 10
-200.000488
 20
171.651428
 42
0.483527
 10
-218.317383
 20
186.395935
 10
-281.182129
 20
172.138977
 42
-1.252207
 10
-281.182129
 20
201.395935
  0
LWPOLYLINE
  5
244
100
AcDbEntity
  8
LAYER01
370
    25
390
0
  6
Continuous
 62
    92
100
AcDbPolyline
 90
        3
 70
     0
 10
-272.766602
 20
229.487366
 10
-218.317383
 20
217.138855
 42
0.43499
 10
-200.174316
 20
229.487366
  0
INSERT
  5
254
100
AcDbEntity
  8
LAYER01
390
0
100
AcDbBlockReference
  2
_D---BQK_U_89
 10
-1677.21582
 20
-49.174988
 30
0.0
  0
INSERT
  5
264
100
AcDbEntity
  8
LAYER01
390
0
100
AcDbBlockReference
  2
_D---BQL_U_89
 10
-1677.21582
 20
-49.174988
 30
0.0
  0
LWPOLYLINE
  5
265
102
{ACAD_REACTORS
330
266
102
}
100
AcDbEntity
  8
HATCH_REACTORS
390
0
100
AcDbPolyline
 90
        4
 70
     1
 10
-347.987793
 20
233.341125
 10
-347.987793
 20
233.337585
 10
-348.021484
 20
233.337585
 10
-348.021484
 20
233.341125
  0
HATCH
  5
266
100
AcDbEntity
  8
LAYER01
370
     5
390
0
  6
Continuous
 62
     7
100
AcDbHatch
 10
0.0
 20
0.0
 30
0.0
210
0.0
220
0.0
230
1.0
  2
_L-O---1
 70
     1
 71
     1
 91
        1
 92
        2
 72
     0
 73
     1
 93
        0
 97
        1
330
265
 75
     0
 76
     0
 98
        0
  0
LWPOLYLINE
  5
267
102
{ACAD_REACTORS
330
268
102
}
100
AcDbEntity
  8
HATCH_REACTORS
390
0
100
AcDbPolyline
 90
        4
 70
     1
 10
-348.021484
 20
233.337585
 10
-348.021484
 20
233.332214
 10
-348.054688
 20
233.332214
 10
-348.054688
 20
233.337585
  0
HATCH
  5
268
100
AcDbEntity
  8
LAYER01
370
     5
390
0
  6
Continuous
 62
     7
100
AcDbHatch
 10
0.0
 20
0.0
 30
0.0
210
0.0
220
0.0
230
1.0
  2
_L-O---1
 70
     1
 71
     1
 91
        1
 92
        2
 72
     0
 73
     1
 93
        0
 97
        1
330
267
 75
     0
 76
     0
 98
        0
  0
LWPOLYLINE
  5
269
102
{ACAD_REACTORS
330
26A
102
}
100
AcDbEntity
  8
HATCH_REACTORS
390
0
100
AcDbPolyline
 90
        4
 70
     1
 10
-348.054688
 20
233.332214
 10
-348.054688
 20
233.325134
 10
-348.087891
 20
233.325134
 10
-348.087891
 20
233.332214
  0
HATCH
  5
26A
100
AcDbEntity
  8
LAYER01
370
     5
390
0
  6
Continuous
 62
     7
100
AcDbHatch
 10
0.0
 20
0.0
 30
0.0
210
0.0
220
0.0
230
1.0
  2
_L-O---1
 70
     1
 71
     1
 91
        1
 92
        2
 72
     0
 73
     1
 93
        0
 97
        1
330
269
 75
     0
 76
     0
 98
        0
  0
LWPOLYLINE
  5
26B
102
{ACAD_REACTORS
330
26C
102
}
100
AcDbEntity
  8
HATCH_REACTORS
390
0
100
AcDbPolyline
 90
        4
 70
     1
 10
-348.087891
 20
233.325134
 10
-348.087891
 20
233.316223
 10
-348.120605
 20
233.316223
 10
-348.120605
 20
233.325134
  0
HATCH
  5
26C
100
AcDbEntity
  8
LAYER01
370
     5
390
0
  6
Continuous
 62
     7
100
AcDbHatch
 10
0.0
 20
0.0
 30
0.0
210
0.0
220
0.0
230
1.0
  2
_L-O---1
 70
     1
 71
     1
 91
        1
 92
        2
 72
     0
 73
     1
 93
        0
 97
        1
330
26B
 75
     0
 76
     0
 98
        0
  0
LWPOLYLINE
  5
26D
102
{ACAD_REACTORS
330
26E
102
}
100
AcDbEntity
  8
HATCH_REACTORS
390
0
100
AcDbPolyline
 90
        4
 70
     1
 10
-348.120605
 20
233.316223
 10
-348.120605
 20
233.305603
 10
-348.152832
 20
233.305603
 10
-348.152832
 20
233.316223
  0
HATCH
  5
26E
100
AcDbEntity
  8
LAYER01
370
     5
390
0
  6
Continuous
 62
     7
100
AcDbHatch
 10
0.0
 20
0.0
 30
0.0
210
0.0
220
0.0
230
1.0
  2
_L-O---1
 70
     1
 71
     1
 91
        1
 92
        2
 72
     0
 73
     1
 93
        0
 97
        1
330
26D
 75
     0
 76
     0
 98
        0
  0
LWPOLYLINE
  5
26F
102
{ACAD_REACTORS
330
270
102
}
100
AcDbEntity
  8
HATCH_REACTORS
390
0
100
AcDbPolyline
 90
        4
 70
     1
 10
-348.152832
 20
233.305603
 10
-348.152832
 20
233.293274
 10
-348.184082
 20
233.293274
 10
-348.184082
 20
233.305603
  0
HATCH
  5
270
100
AcDbEntity
  8
LAYER01
370
     5
390
0
  6
Continuous
 62
     7
100
AcDbHatch
 10
0.0
 20
0.0
 30
0.0
210
0.0
220
0.0
230
1.0
  2
_L-O---1
 70
     1
 71
     1
 91
        1
 92
        2
 72
     0
 73
     1
 93
        0
 97
        1
330
26F
 75
     0
 76
     0
 98
        0
  0
LWPOLYLINE
  5
271
102
{ACAD_REACTORS
330
272
102
}
100
AcDbEntity
  8
HATCH_REACTORS
390
0
100
AcDbPolyline
 90
        4
 70
     1
 10
-348.184082
 20
233.293274
 10
-348.184082
 20
233.279114
 10
-348.214844
 20
233.279114
 10
-348.214844
 20
233.293274
  0
HATCH
  5
272
100
AcDbEntity
  8
LAYER01
370
     5
390
0
  6
Continuous
 62
     7
100
AcDbHatch
 10
0.0
 20
0.0
 30
0.0
210
0.0
220
0.0
230
1.0
  2
_L-O---1
 70
     1
 71
     1
 91
        1
 92
        2
 72
     0
 73
     1
 93
        0
 97
        1
330
271
 75
     0
 76
     0
 98
        0
  0
LWPOLYLINE
  5
273
102
{ACAD_REACTORS
330
274
102
}
100
AcDbEntity
  8
HATCH_REACTORS
390
0
100
AcDbPolyline
 90
        4
 70
     1
 10
-348.214844
 20
233.279114
 10
-348.214844
 20
233.263489
 10
-348.245117
 20
233.263489
 10
-348.245117
 20
233.279114
  0
HATCH
  5
274
100
AcDbEntity
  8
LAYER01
370
     5
390
0
  6
Continuous
 62
     7
100
AcDbHatch
 10
0.0
 20
0.0
 30
0.0
210
0.0
220
0.0
230
1.0
  2
_L-O---1
 70
     1
 71
     1
 91
        1
 92
        2
 72
     0
 73
     1
 93
        0
 97
        1
330
273
 75
     0
 76
     0
 98
        0
  0
LWPOLYLINE
  5
275
102
{ACAD_REACTORS
330
276
102
}
100
AcDbEntity
  8
HATCH_REACTORS
390
0
100
AcDbPolyline
 90
        4
 70
     1
 10
-348.245117
 20
233.263489
 10
-348.245117
 20
233.246155
 10
-348.273926
 20
233.246155
 10
-348.273926
 20
233.263489
  0
HATCH
  5
276
100
AcDbEntity
  8
LAYER01
370
     5
390
0
  6
Continuous
 62
     7
100
AcDbHatch
 10
0.0
 20
0.0
 30
0.0
210
0.0
220
0.0
230
1.0
  2
_L-O---1
 70
     1
 71
     1
 91
        1
 92
        2
 72
     0
 73
     1
 93
        0
 97
        1
330
275
 75
     0
 76
     0
 98
        0
  0
LWPOLYLINE
  5
277
102
{ACAD_REACTORS
330
278
102
}
100
AcDbEntity
  8
HATCH_REACTORS
390
0
100
AcDbPolyline
 90
        4
 70
     1
 10
-348.273926
 20
233.246155
 10
-348.273926
 20
233.227234
 10
-348.302246
 20
233.227234
 10
-348.302246
 20
233.246155
  0
HATCH
  5
278
100
AcDbEntity
  8
LAYER01
370
     5
390
0
  6
Continuous
 62
     7
100
AcDbHatch
 10
0.0
 20
0.0
 30
0.0
210
0.0
220
0.0
230
1.0
  2
_L-O---1
 70
     1
 71
     1
 91
        1
 92
        2
 72
     0
 73
     1
 93
        0
 97
        1
330
277
 75
     0
 76
     0
 98
        0
  0
LWPOLYLINE
  5
279
102
{ACAD_REACTORS
330
27A
102
}
100
AcDbEntity
  8
HATCH_REACTORS
390
0
100
AcDbPolyline
 90
        4
 70
     1
 10
-348.302246
 20
233.227234
 10
-348.302246
 20
233.20697
 10
-348.329102
 20
233.20697
 10
-348.329102
 20
233.227234
  0
HATCH
  5
27A
100
AcDbEntity
  8
LAYER01
370
     5
390
0
  6
Continuous
 62
     7
100
AcDbHatch
 10
0.0
 20
0.0
 30
0.0
210
0.0
220
0.0
230
1.0
  2
_L-O---1
 70
     1
 71
     1
 91
        1
 92
        2
 72
     0
 73
     1
 93
        0
 97
        1
330
279
 75
     0
 76
     0
 98
        0
  0
LWPOLYLINE
  5
27B
102
{ACAD_REACTORS
330
27C
102
}
100
AcDbEntity
  8
HATCH_REACTORS
390
0
100
AcDbPolyline
 90
        4
 70
     1
 10
-348.329102
 20
233.20697
 10
-348.329102
 20
233.18512
 10
-348.35498
 20
233.18512
 10
-348.35498
 20
233.20697
  0
HATCH
  5
27C
100
AcDbEntity
  8
LAYER01
370
     5
390
0
  6
Continuous
 62
     7
100
AcDbHatch
 10
0.0
 20
0.0
 30
0.0
210
0.0
220
0.0
230
1.0
  2
_L-O---1
 70
     1
 71
     1
 91
        1
 92
        2
 72
     0
 73
     1
 93
        0
 97
        1
330
27B
 75
     0
 76
     0
 98
        0
  0
LWPOLYLINE
  5
27D
102
{ACAD_REACTORS
330
27E
102
}
100
AcDbEntity
  8
HATCH_REACTORS
390
0
100
AcDbPolyline
 90
        4
 70
     1
 10
-348.35498
 20
233.18512
 10
-348.35498
 20
233.162048
 10
-348.379883
 20
233.162048
 10
-348.379883
 20
233.18512
  0
HATCH
  5
27E
100
AcDbEntity
  8
LAYER01
370
     5
390
0
  6
Continuous
 62
     7
100
AcDbHatch
 10
0.0
 20
0.0
 30
0.0
210
0.0
220
0.0
230
1.0
  2
_L-O---1
 70
     1
 71
     1
 91
        1
 92
        2
 72
     0
 73
     1
 93
        0
 97
        1
330
27D
 75
     0
 76
     0
 98
        0
  0
LWPOLYLINE
  5
27F
102
{ACAD_REACTORS
330
280
102
}
100
AcDbEntity
  8
HATCH_REACTORS
390
0
100
AcDbPolyline
 90
        4
 70
     1
 10
-348.379883
 20
233.162048
 10
-348.379883
 20
233.137512
 10
-348.40332
 20
233.137512
 10
-348.40332
 20
233.162048
  0
HATCH
  5
280
100
AcDbEntity
  8
LAYER01
370
     5
390
0
  6
Continuous
 62
     7
100
AcDbHatch
 10
0.0
 20
0.0
 30
0.0
210
0.0
220
0.0
230
1.0
  2
_L-O---1
 70
     1
 71
     1
 91
        1
 92
        2
 72
     0
 73
     1
 93
        0
 97
        1
330
27F
 75
     0
 76
     0
 98
        0
  0
LWPOLYLINE
  5
281
102
{ACAD_REACTORS
330
282
102
}
100
AcDbEntity
  8
HATCH_REACTORS
390
0
100
AcDbPolyline
 90
        4
 70
     1
 10
-348.40332
 20
233.137512
 10
-348.40332
 20
233.111877
 10
-348.425293
 20
233.111877
 10
-348.425293
 20
233.137512
  0
HATCH
  5
282
100
AcDbEntity
  8
LAYER01
370
     5
390
0
  6
Continuous
 62
     7
100
AcDbHatch
 10
0.0
 20
0.0
 30
0.0
210
0.0
220
0.0
230
1.0
  2
_L-O---1
 70
     1
 71
     1
 91
        1
 92
        2
 72
     0
 73
     1
 93
        0
 97
        1
330
281
 75
     0
 76
     0
 98
        0
  0
LWPOLYLINE
  5
283
102
{ACAD_REACTORS
330
284
102
}
100
AcDbEntity
  8
HATCH_REACTORS
390
0
100
AcDbPolyline
 90
        4
 70
     1
 10
-348.425293
 20
233.111877
 10
-348.425293
 20
233.085022
 10
-348.445801
 20
233.085022
 10
-348.445801
 20
233.111877
  0
HATCH
  5
284
100
AcDbEntity
  8
LAYER01
370
     5
390
0
  6
Continuous
 62
     7
100
AcDbHatch
 10
0.0
 20
0.0
 30
0.0
210
0.0
220
0.0
230
1.0
  2
_L-O---1
 70
     1
 71
     1
 91
        1
 92
        2
 72
     0
 73
     1
 93
        0
 97
        1
330
283
 75
     0
 76
     0
 98
        0
  0
LWPOLYLINE
  5
285
102
{ACAD_REACTORS
330
286
102
}
100
AcDbEntity
  8
HATCH_REACTORS
390
0
100
AcDbPolyline
 90
        4
 70
     1
 10
-348.445801
 20
233.085022
 10
-348.445801
 20
233.057068
 10
-348.464844
 20
233.057068
 10
-348.464844
 20
233.085022
  0
HATCH
  5
286
100
AcDbEntity
  8
LAYER01
370
     5
390
0
  6
Continuous
 62
     7
100
AcDbHatch
 10
0.0
 20
0.0
 30
0.0
210
0.0
220
0.0
230
1.0
  2
_L-O---1
 70
     1
 71
     1
 91
        1
 92
        2
 72
     0
 73
     1
 93
        0
 97
        1
330
285
 75
     0
 76
     0
 98
        0
  0
LWPOLYLINE
  5
287
102
{ACAD_REACTORS
330
288
102
}
100
AcDbEntity
  8
HATCH_REACTORS
390
0
100
AcDbPolyline
 90
        4
 70
     1
 10
-348.464844
 20
233.057068
 10
-348.464844
 20
233.028137
 10
-348.48291
 20
233.028137
 10
-348.48291
 20
233.057068
  0
HATCH
  5
288
100
AcDbEntity
  8
LAYER01
370
     5
390
0
  6
Continuous
 62
     7
100
AcDbHatch
 10
0.0
 20
0.0
 30
0.0
210
0.0
220
0.0
230
1.0
  2
_L-O---1
 70
     1
 71
     1
 91
        1
 92
        2
 72
     0
 73
     1
 93
        0
 97
        1
330
287
 75
     0
 76
     0
 98
        0
  0
LWPOLYLINE
  5
289
102
{ACAD_REACTORS
330
28A
102
}
100
AcDbEntity
  8
HATCH_REACTORS
390
0
100
AcDbPolyline
 90
        4
 70
     1
 10
-348.48291
 20
233.028137
 10
-348.48291
 20
232.998352
 10
-348.498535
 20
232.998352
 10
-348.498535
 20
233.028137
  0
HATCH
  5
28A
100
AcDbEntity
  8
LAYER01
370
     5
390
0
  6
Continuous
 62
     7
100
AcDbHatch
 10
0.0
 20
0.0
 30
0.0
210
0.0
220
0.0
230
1.0
  2
_L-O---1
 70
     1
 71
     1
 91
        1
 92
        2
 72
     0
 73
     1
 93
        0
 97
        1
330
289
 75
     0
 76
     0
 98
        0
  0
LWPOLYLINE
  5
28B
102
{ACAD_REACTORS
330
28C
102
}
100
AcDbEntity
  8
HATCH_REACTORS
390
0
100
AcDbPolyline
 90
        4
 70
     1
 10
-348.498535
 20
232.998352
 10
-348.498535
 20
232.967712
 10
-348.513184
 20
232.967712
 10
-348.513184
 20
232.998352
  0
HATCH
  5
28C
100
AcDbEntity
  8
LAYER01
370
     5
390
0
  6
Continuous
 62
     7
100
AcDbHatch
 10
0.0
 20
0.0
 30
0.0
210
0.0
220
0.0
230
1.0
  2
_L-O---1
 70
     1
 71
     1
 91
        1
 92
        2
 72
     0
 73
     1
 93
        0
 97
        1
330
28B
 75
     0
 76
     0
 98
        0
  0
LWPOLYLINE
  5
28D
102
{ACAD_REACTORS
330
28E
102
}
100
AcDbEntity
  8
HATCH_REACTORS
390
0
100
AcDbPolyline
 90
        4
 70
     1
 10
-348.513184
 20
232.967712
 10
-348.513184
 20
232.93634
 10
-348.525879
 20
232.93634
 10
-348.525879
 20
232.967712
  0
HATCH
  5
28E
100
AcDbEntity
  8
LAYER01
370
     5
390
0
  6
Continuous
 62
     7
100
AcDbHatch
 10
0.0
 20
0.0
 30
0.0
210
0.0
220
0.0
230
1.0
  2
_L-O---1
 70
     1
 71
     1
 91
        1
 92
        2
 72
     0
 73
     1
 93
        0
 97
        1
330
28D
 75
     0
 76
     0
 98
        0
  0
LWPOLYLINE
  5
28F
102
{ACAD_REACTORS
330
290
102
}
100
AcDbEntity
  8
HATCH_REACTORS
390
0
100
AcDbPolyline
 90
        4
 70
     1
 10
-348.525879
 20
232.93634
 10
-348.525879
 20
232.904236
 10
-348.536621
 20
232.904236
 10
-348.536621
 20
232.93634
  0
HATCH
  5
290
100
AcDbEntity
  8
LAYER01
370
     5
390
0
  6
Continuous
 62
     7
100
AcDbHatch
 10
0.0
 20
0.0
 30
0.0
210
0.0
220
0.0
230
1.0
  2
_L-O---1
 70
     1
 71
     1
 91
        1
 92
        2
 72
     0
 73
     1
 93
        0
 97
        1
330
28F
 75
     0
 76
     0
 98
        0
  0
LWPOLYLINE
  5
291
102
{ACAD_REACTORS
330
292
102
}
100
AcDbEntity
  8
HATCH_REACTORS
390
0
100
AcDbPolyline
 90
        4
 70
     1
 10
-348.536621
 20
232.904236
 10
-348.536621
 20
232.871643
 10
-348.545898
 20
232.871643
 10
-348.545898
 20
232.904236
  0
HATCH
  5
292
100
AcDbEntity
  8
LAYER01
370
     5
390
0
  6
Continuous
 62
     7
100
AcDbHatch
 10
0.0
 20
0.0
 30
0.0
210
0.0
220
0.0
230
1.0
  2
_L-O---1
 70
     1
 71
     1
 91
        1
 92
        2
 72
     0
 73
     1
 93
        0
 97
        1
330
291
 75
     0
 76
     0
 98
        0
  0
LWPOLYLINE
  5
293
102
{ACAD_REACTORS
330
294
102
}
100
AcDbEntity
  8
HATCH_REACTORS
390
0
100
AcDbPolyline
 90
        4
 70
     1
 10
-348.545898
 20
232.871643
 10
-348.545898
 20
232.838684
 10
-348.553223
 20
232.838684
 10
-348.553223
 20
232.871643
  0
HATCH
  5
294
100
AcDbEntity
  8
LAYER01
370
     5
390
0
  6
Continuous
 62
     7
100
AcDbHatch
 10
0.0
 20
0.0
 30
0.0
210
0.0
220
0.0
230
1.0
  2
_L-O---1
 70
     1
 71
     1
 91
        1
 92
        2
 72
     0
 73
     1
 93
        0
 97
        1
330
293
 75
     0
 76
     0
 98
        0
  0
LWPOLYLINE
  5
295
102
{ACAD_REACTORS
330
296
102
}
100
AcDbEntity
  8
HATCH_REACTORS
390
0
100
AcDbPolyline
 90
        4
 70
     1
 10
-348.553223
 20
232.838684
 10
-348.553223
 20
232.805237
 10
-348.559082
 20
232.805237
 10
-348.559082
 20
232.838684
  0
HATCH
  5
296
100
AcDbEntity
  8
LAYER01
370
     5
390
0
  6
Continuous
 62
     7
100
AcDbHatch
 10
0.0
 20
0.0
 30
0.0
210
0.0
220
0.0
230
1.0
  2
_L-O---1
 70
     1
 71
     1
 91
        1
 92
        2
 72
     0
 73
     1
 93
        0
 97
        1
330
295
 75
     0
 76
     0
 98
        0
  0
LWPOLYLINE
  5
297
102
{ACAD_REACTORS
330
298
102
}
100
AcDbEntity
  8
HATCH_REACTORS
390
0
100
AcDbPolyline
 90
        4
 70
     1
 10
-348.559082
 20
232.805237
 10
-348.559082
 20
232.771667
 10
-348.562988
 20
232.771667
 10
-348.562988
 20
232.805237
  0
HATCH
  5
298
100
AcDbEntity
  8
LAYER01
370
     5
390
0
  6
Continuous
 62
     7
100
AcDbHatch
 10
0.0
 20
0.0
 30
0.0
210
0.0
220
0.0
230
1.0
  2
_L-O---1
 70
     1
 71
     1
 91
        1
 92
        2
 72
     0
 73
     1
 93
        0
 97
        1
330
297
 75
     0
 76
     0
 98
        0
  0
LWPOLYLINE
  5
299
102
{ACAD_REACTORS
330
29A
102
}
100
AcDbEntity
  8
HATCH_REACTORS
390
0
100
AcDbPolyline
 90
        4
 70
     1
 10
-348.562988
 20
232.771667
 10
-348.562988
 20
232.737854
 10
-348.564941
 20
232.737854
 10
-348.564941
 20
232.771667
  0
HATCH
  5
29A
100
AcDbEntity
  8
LAYER01
370
     5
390
0
  6
Continuous
 62
     7
100
AcDbHatch
 10
0.0
 20
0.0
 30
0.0
210
0.0
220
0.0
230
1.0
  2
_L-O---1
 70
     1
 71
     1
 91
        1
 92
        2
 72
     0
 73
     1
 93
        0
 97
        1
330
299
 75
     0
 76
     0
 98
        0
  0
LWPOLYLINE
  5
29B
102
{ACAD_REACTORS
330
29C
102
}
100
AcDbEntity
  8
HATCH_REACTORS
390
0
100
AcDbPolyline
 90
        4
 70
     1
 10
-348.564941
 20
232.737854
 10
-348.564941
 20
232.704041
 10
-348.564941
 20
232.704041
 10
-348.564941
 20
232.737854
  0
HATCH
  5
29C
100
AcDbEntity
  8
LAYER01
370
     5
390
0
  6
Continuous
 62
     7
100
AcDbHatch
 10
0.0
 20
0.0
 30
0.0
210
0.0
220
0.0
230
1.0
  2
_L-O---1
 70
     1
 71
     1
 91
        1
 92
        2
 72
     0
 73
     1
 93
        0
 97
        1
330
29B
 75
     0
 76
     0
 98
        0
  0
LWPOLYLINE
  5
29D
102
{ACAD_REACTORS
330
29E
102
}
100
AcDbEntity
  8
HATCH_REACTORS
390
0
100
AcDbPolyline
 90
        4
 70
     1
 10
-348.563477
 20
232.704041
 10
-348.563477
 20
232.670227
 10
-348.564941
 20
232.670227
 10
-348.564941
 20
232.704041
  0
HATCH
  5
29E
100
AcDbEntity
  8
LAYER01
370
     5
390
0
  6
Continuous
 62
     7
100
AcDbHatch
 10
0.0
 20
0.0
 30
0.0
210
0.0
220
0.0
230
1.0
  2
_L-O---1
 70
     1
 71
     1
 91
        1
 92
        2
 72
     0
 73
     1
 93
        0
 97
        1
330
29D
 75
     0
 76
     0
 98
        0
  0
LWPOLYLINE
  5
29F
102
{ACAD_REACTORS
330
2A0
102
}
100
AcDbEntity
  8
HATCH_REACTORS
390
0
100
AcDbPolyline
 90
        4
 70
     1
 10
-348.55957
 20
232.670227
 10
-348.55957
 20
232.636536
 10
-348.563477
 20
232.636536
 10
-348.563477
 20
232.670227
  0
HATCH
  5
2A0
100
AcDbEntity
  8
LAYER01
370
     5
390
0
  6
Continuous
 62
     7
100
AcDbHatch
 10
0.0
 20
0.0
 30
0.0
210
0.0
220
0.0
230
1.0
  2
_L-O---1
 70
     1
 71
     1
 91
        1
 92
        2
 72
     0
 73
     1
 93
        0
 97
        1
330
29F
 75
     0
 76
     0
 98
        0
  0
LWPOLYLINE
  5
2A1
102
{ACAD_REACTORS
330
2A2
102
}
100
AcDbEntity
  8
HATCH_REACTORS
390
0
100
AcDbPolyline
 90
        4
 70
     1
 10
-348.554688
 20
232.636536
 10
-348.554688
 20
232.603088
 10
-348.55957
 20
232.603088
 10
-348.55957
 20
232.636536
  0
HATCH
  5
2A2
100
AcDbEntity
  8
LAYER01
370
     5
390
0
  6
Continuous
 62
     7
100
AcDbHatch
 10
0.0
 20
0.0
 30
0.0
210
0.0
220
0.0
230
1.0
  2
_L-O---1
 70
     1
 71
     1
 91
        1
 92
        2
 72
     0
 73
     1
 93
        0
 97
        1
330
2A1
 75
     0
 76
     0
 98
        0
  0
LWPOLYLINE
  5
2A3
102
{ACAD_REACTORS
330
2A4
102
}
100
AcDbEntity
  8
HATCH_REACTORS
390
0
100
AcDbPolyline
 90
        4
 70
     1
 10
-348.547363
 20
232.603088
 10
-348.547363
 20
232.570007
 10
-348.554688
 20
232.570007
 10
-348.554688
 20
232.603088
  0
HATCH
  5
2A4
100
AcDbEntity
  8
LAYER01
370
     5
390
0
  6
Continuous
 62
     7
100
AcDbHatch
 10
0.0
 20
0.0
 30
0.0
210
0.0
220
0.0
230
1.0
  2
_L-O---1
 70
     1
 71
     1
 91
        1
 92
        2
 72
     0
 73
     1
 93
        0
 97
        1
330
2A3
 75
     0
 76
     0
 98
        0
  0
LWPOLYLINE
  5
2A5
102
{ACAD_REACTORS
330
2A6
102
}
100
AcDbEntity
  8
HATCH_REACTORS
390
0
100
AcDbPolyline
 90
        4
 70
     1
 10
-348.538574
 20
232.570007
 10
-348.538574
 20
232.537415
 10
-348.547363
 20
232.537415
 10
-348.547363
 20
232.570007
  0
HATCH
  5
2A6
100
AcDbEntity
  8
LAYER01
370
     5
390
0
  6
Continuous
 62
     7
100
AcDbHatch
 10
0.0
 20
0.0
 30
0.0
210
0.0
220
0.0
230
1.0
  2
_L-O---1
 70
     1
 71
     1
 91
        1
 92
        2
 72
     0
 73
     1
 93
        0
 97
        1
330
2A5
 75
     0
 76
     0
 98
        0
  0
LWPOLYLINE
  5
2A7
102
{ACAD_REACTORS
330
2A8
102
}
100
AcDbEntity
  8
HATCH_REACTORS
390
0
100
AcDbPolyline
 90
        4
 70
     1
 10
-348.527832
 20
232.537415
 10
-348.527832
 20
232.505188
 10
-348.538574
 20
232.505188
 10
-348.538574
 20
232.537415
  0
HATCH
  5
2A8
100
AcDbEntity
  8
LAYER01
370
     5
390
0
  6
Continuous
 62
     7
100
AcDbHatch
 10
0.0
 20
0.0
 30
0.0
210
0.0
220
0.0
230
1.0
  2
_L-O---1
 70
     1
 71
     1
 91
        1
 92
        2
 72
     0
 73
     1
 93
        0
 97
        1
330
2A7
 75
     0
 76
     0
 98
        0
  0
LWPOLYLINE
  5
2A9
102
{ACAD_REACTORS
330
2AA
102
}
100
AcDbEntity
  8
HATCH_REACTORS
390
0
100
AcDbPolyline
 90
        4
 70
     1
 10
-348.515625
 20
232.505188
 10
-348.515625
 20
232.473694
 10
-348.527832
 20
232.473694
 10
-348.527832
 20
232.505188
  0
HATCH
  5
2AA
100
AcDbEntity
  8
LAYER01
370
     5
390
0
  6
Continuous
 62
     7
100
AcDbHatch
 10
0.0
 20
0.0
 30
0.0
210
0.0
220
0.0
230
1.0
  2
_L-O---1
 70
     1
 71
     1
 91
        1
 92
        2
 72
     0
 73
     1
 93
        0
 97
        1
330
2A9
 75
     0
 76
     0
 98
        0
  0
LWPOLYLINE
  5
2AB
102
{ACAD_REACTORS
330
2AC
102
}
100
AcDbEntity
  8
HATCH_REACTORS
390
0
100
AcDbPolyline
 90
        4
 70
     1
 10
-348.501465
 20
232.473694
 10
-348.501465
 20
232.442932
 10
-348.515625
 20
232.442932
 10
-348.515625
 20
232.473694
  0
HATCH
  5
2AC
100
AcDbEntity
  8
LAYER01
370
     5
390
0
  6
Continuous
 62
     7
100
AcDbHatch
 10
0.0
 20
0.0
 30
0.0
210
0.0
220
0.0
230
1.0
  2
_L-O---1
 70
     1
 71
     1
 91
        1
 92
        2
 72
     0
 73
     1
 93
        0
 97
        1
330
2AB
 75
     0
 76
     0
 98
        0
  0
LWPOLYLINE
  5
2AD
102
{ACAD_REACTORS
330
2AE
102
}
100
AcDbEntity
  8
HATCH_REACTORS
390
0
100
AcDbPolyline
 90
        4
 70
     1
 10
-348.48584
 20
232.442932
 10
-348.48584
 20
232.412903
 10
-348.501465
 20
232.412903
 10
-348.501465
 20
232.442932
  0
HATCH
  5
2AE
100
AcDbEntity
  8
LAYER01
370
     5
390
0
  6
Continuous
 62
     7
100
AcDbHatch
 10
0.0
 20
0.0
 30
0.0
210
0.0
220
0.0
230
1.0
  2
_L-O---1
 70
     1
 71
     1
 91
        1
 92
        2
 72
     0
 73
     1
 93
        0
 97
        1
330
2AD
 75
     0
 76
     0
 98
        0
  0
LWPOLYLINE
  5
2AF
102
{ACAD_REACTORS
330
2B0
102
}
100
AcDbEntity
  8
HATCH_REACTORS
390
0
100
AcDbPolyline
 90
        4
 70
     1
 10
-348.468262
 20
232.412903
 10
-348.468262
 20
232.38385
 10
-348.48584
 20
232.38385
 10
-348.48584
 20
232.412903
  0
HATCH
  5
2B0
100
AcDbEntity
  8
LAYER01
370
     5
390
0
  6
Continuous
 62
     7
100
AcDbHatch
 10
0.0
 20
0.0
 30
0.0
210
0.0
220
0.0
230
1.0
  2
_L-O---1
 70
     1
 71
     1
 91
        1
 92
        2
 72
     0
 73
     1
 93
        0
 97
        1
330
2AF
 75
     0
 76
     0
 98
        0
  0
LWPOLYLINE
  5
2B1
102
{ACAD_REACTORS
330
2B2
102
}
100
AcDbEntity
  8
HATCH_REACTORS
390
0
100
AcDbPolyline
 90
        4
 70
     1
 10
-348.449707
 20
232.38385
 10
-348.449707
 20
232.355774
 10
-348.468262
 20
232.355774
 10
-348.468262
 20
232.38385
  0
HATCH
  5
2B2
100
AcDbEntity
  8
LAYER01
370
     5
390
0
  6
Continuous
 62
     7
100
AcDbHatch
 10
0.0
 20
0.0
 30
0.0
210
0.0
220
0.0
230
1.0
  2
_L-O---1
 70
     1
 71
     1
 91
        1
 92
        2
 72
     0
 73
     1
 93
        0
 97
        1
330
2B1
 75
     0
 76
     0
 98
        0
  0
LWPOLYLINE
  5
2B3
102
{ACAD_REACTORS
330
2B4
102
}
100
AcDbEntity
  8
HATCH_REACTORS
390
0
100
AcDbPolyline
 90
        4
 70
     1
 10
-348.429199
 20
232.355774
 10
-348.429199
 20
232.328674
 10
-348.449707
 20
232.328674
 10
-348.449707
 20
232.355774
  0
HATCH
  5
2B4
100
AcDbEntity
  8
LAYER01
370
     5
390
0
  6
Continuous
 62
     7
100
AcDbHatch
 10
0.0
 20
0.0
 30
0.0
210
0.0
220
0.0
230
1.0
  2
_L-O---1
 70
     1
 71
     1
 91
        1
 92
        2
 72
     0
 73
     1
 93
        0
 97
        1
330
2B3
 75
     0
 76
     0
 98
        0
  0
LWPOLYLINE
  5
2B5
102
{ACAD_REACTORS
330
2B6
102
}
100
AcDbEntity
  8
HATCH_REACTORS
390
0
100
AcDbPolyline
 90
        4
 70
     1
 10
-348.407227
 20
232.328674
 10
-348.407227
 20
232.302795
 10
-348.429199
 20
232.302795
 10
-348.429199
 20
232.328674
  0
HATCH
  5
2B6
100
AcDbEntity
  8
LAYER01
370
     5
390
0
  6
Continuous
 62
     7
100
AcDbHatch
 10
0.0
 20
0.0
 30
0.0
210
0.0
220
0.0
230
1.0
  2
_L-O---1
 70
     1
 71
     1
 91
        1
 92
        2
 72
     0
 73
     1
 93
        0
 97
        1
330
2B5
 75
     0
 76
     0
 98
        0
  0
LWPOLYLINE
  5
2B7
102
{ACAD_REACTORS
330
2B8
102
}
100
AcDbEntity
  8
HATCH_REACTORS
390
0
100
AcDbPolyline
 90
        4
 70
     1
 10
-348.384277
 20
232.302795
 10
-348.384277
 20
232.278137
 10
-348.407227
 20
232.278137
 10
-348.407227
 20
232.302795
  0
HATCH
  5
2B8
100
AcDbEntity
  8
LAYER01
370
     5
390
0
  6
Continuous
 62
     7
100
AcDbHatch
 10
0.0
 20
0.0
 30
0.0
210
0.0
220
0.0
230
1.0
  2
_L-O---1
 70
     1
 71
     1
 91
        1
 92
        2
 72
     0
 73
     1
 93
        0
 97
        1
330
2B7
 75
     0
 76
     0
 98
        0
  0
LWPOLYLINE
  5
2B9
102
{ACAD_REACTORS
330
2BA
102
}
100
AcDbEntity
  8
HATCH_REACTORS
390
0
100
AcDbPolyline
 90
        4
 70
     1
 10
-348.359863
 20
232.278137
 10
-348.359863
 20
232.2547
 10
-348.384277
 20
232.2547
 10
-348.384277
 20
232.278137
  0
HATCH
  5
2BA
100
AcDbEntity
  8
LAYER01
370
     5
390
0
  6
Continuous
 62
     7
100
AcDbHatch
 10
0.0
 20
0.0
 30
0.0
210
0.0
220
0.0
230
1.0
  2
_L-O---1
 70
     1
 71
     1
 91
        1
 92
        2
 72
     0
 73
     1
 93
        0
 97
        1
330
2B9
 75
     0
 76
     0
 98
        0
  0
LWPOLYLINE
  5
2BB
102
{ACAD_REACTORS
330
2BC
102
}
100
AcDbEntity
  8
HATCH_REACTORS
390
0
100
AcDbPolyline
 90
        4
 70
     1
 10
-348.333984
 20
232.2547
 10
-348.333984
 20
232.232727
 10
-348.359863
 20
232.232727
 10
-348.359863
 20
232.2547
  0
HATCH
  5
2BC
100
AcDbEntity
  8
LAYER01
370
     5
390
0
  6
Continuous
 62
     7
100
AcDbHatch
 10
0.0
 20
0.0
 30
0.0
210
0.0
220
0.0
230
1.0
  2
_L-O---1
 70
     1
 71
     1
 91
        1
 92
        2
 72
     0
 73
     1
 93
        0
 97
        1
330
2BB
 75
     0
 76
     0
 98
        0
  0
LWPOLYLINE
  5
2BD
102
{ACAD_REACTORS
330
2BE
102
}
100
AcDbEntity
  8
HATCH_REACTORS
390
0
100
AcDbPolyline
 90
        4
 70
     1
 10
-348.307129
 20
232.232727
 10
-348.307129
 20
232.212097
 10
-348.333984
 20
232.212097
 10
-348.333984
 20
232.232727
  0
HATCH
  5
2BE
100
AcDbEntity
  8
LAYER01
370
     5
390
0
  6
Continuous
 62
     7
100
AcDbHatch
 10
0.0
 20
0.0
 30
0.0
210
0.0
220
0.0
230
1.0
  2
_L-O---1
 70
     1
 71
     1
 91
        1
 92
        2
 72
     0
 73
     1
 93
        0
 97
        1
330
2BD
 75
     0
 76
     0
 98
        0
  0
LWPOLYLINE
  5
2BF
102
{ACAD_REACTORS
330
2C0
102
}
100
AcDbEntity
  8
HATCH_REACTORS
390
0
100
AcDbPolyline
 90
        4
 70
     1
 10
-348.279297
 20
232.212097
 10
-348.279297
 20
232.192932
 10
-348.307129
 20
232.192932
 10
-348.307129
 20
232.212097
  0
HATCH
  5
2C0
100
AcDbEntity
  8
LAYER01
370
     5
390
0
  6
Continuous
 62
     7
100
AcDbHatch
 10
0.0
 20
0.0
 30
0.0
210
0.0
220
0.0
230
1.0
  2
_L-O---1
 70
     1
 71
     1
 91
        1
 92
        2
 72
     0
 73
     1
 93
        0
 97
        1
330
2BF
 75
     0
 76
     0
 98
        0
  0
LWPOLYLINE
  5
2C1
102
{ACAD_REACTORS
330
2C2
102
}
100
AcDbEntity
  8
HATCH_REACTORS
390
0
100
AcDbPolyline
 90
        4
 70
     1
 10
-348.250488
 20
232.192932
 10
-348.250488
 20
232.175354
 10
-348.279297
 20
232.175354
 10
-348.279297
 20
232.192932
  0
HATCH
  5
2C2
100
AcDbEntity
  8
LAYER01
370
     5
390
0
  6
Continuous
 62
     7
100
AcDbHatch
 10
0.0
 20
0.0
 30
0.0
210
0.0
220
0.0
230
1.0
  2
_L-O---1
 70
     1
 71
     1
 91
        1
 92
        2
 72
     0
 73
     1
 93
        0
 97
        1
330
2C1
 75
     0
 76
     0
 98
        0
  0
LWPOLYLINE
  5
2C3
102
{ACAD_REACTORS
330
2C4
102
}
100
AcDbEntity
  8
HATCH_REACTORS
390
0
100
AcDbPolyline
 90
        4
 70
     1
 10
-348.220703
 20
232.175354
 10
-348.220703
 20
232.159363
 10
-348.250488
 20
232.159363
 10
-348.250488
 20
232.175354
  0
HATCH
  5
2C4
100
AcDbEntity
  8
LAYER01
370
     5
390
0
  6
Continuous
 62
     7
100
AcDbHatch
 10
0.0
 20
0.0
 30
0.0
210
0.0
220
0.0
230
1.0
  2
_L-O---1
 70
     1
 71
     1
 91
        1
 92
        2
 72
     0
 73
     1
 93
        0
 97
        1
330
2C3
 75
     0
 76
     0
 98
        0
  0
LWPOLYLINE
  5
2C5
102
{ACAD_REACTORS
330
2C6
102
}
100
AcDbEntity
  8
HATCH_REACTORS
390
0
100
AcDbPolyline
 90
        4
 70
     1
 10
-348.189941
 20
232.159363
 10
-348.189941
 20
232.144958
 10
-348.220703
 20
232.144958
 10
-348.220703
 20
232.159363
  0
HATCH
  5
2C6
100
AcDbEntity
  8
LAYER01
370
     5
390
0
  6
Continuous
 62
     7
100
AcDbHatch
 10
0.0
 20
0.0
 30
0.0
210
0.0
220
0.0
230
1.0
  2
_L-O---1
 70
     1
 71
     1
 91
        1
 92
        2
 72
     0
 73
     1
 93
        0
 97
        1
330
2C5
 75
     0
 76
     0
 98
        0
  0
LWPOLYLINE
  5
2C7
102
{ACAD_REACTORS
330
2C8
102
}
100
AcDbEntity
  8
HATCH_REACTORS
390
0
100
AcDbPolyline
 90
        4
 70
     1
 10
-348.158691
 20
232.144958
 10
-348.158691
 20
232.132263
 10
-348.189941
 20
232.132263
 10
-348.189941
 20
232.144958
  0
HATCH
  5
2C8
100
AcDbEntity
  8
LAYER01
370
     5
390
0
  6
Continuous
 62
     7
100
AcDbHatch
 10
0.0
 20
0.0
 30
0.0
210
0.0
220
0.0
230
1.0
  2
_L-O---1
 70
     1
 71
     1
 91
        1
 92
        2
 72
     0
 73
     1
 93
        0
 97
        1
330
2C7
 75
     0
 76
     0
 98
        0
  0
LWPOLYLINE
  5
2C9
102
{ACAD_REACTORS
330
2CA
102
}
100
AcDbEntity
  8
HATCH_REACTORS
390
0
100
AcDbPolyline
 90
        4
 70
     1
 10
-348.126465
 20
232.132263
 10
-348.126465
 20
232.121277
 10
-348.158691
 20
232.121277
 10
-348.158691
 20
232.132263
  0
HATCH
  5
2CA
100
AcDbEntity
  8
LAYER01
370
     5
390
0
  6
Continuous
 62
     7
100
AcDbHatch
 10
0.0
 20
0.0
 30
0.0
210
0.0
220
0.0
230
1.0
  2
_L-O---1
 70
     1
 71
     1
 91
        1
 92
        2
 72
     0
 73
     1
 93
        0
 97
        1
330
2C9
 75
     0
 76
     0
 98
        0
  0
LWPOLYLINE
  5
2CB
102
{ACAD_REACTORS
330
2CC
102
}
100
AcDbEntity
  8
HATCH_REACTORS
390
0
100
AcDbPolyline
 90
        4
 70
     1
 10
-348.09375
 20
232.121277
 10
-348.09375
 20
232.112122
 10
-348.126465
 20
232.112122
 10
-348.126465
 20
232.121277
  0
HATCH
  5
2CC
100
AcDbEntity
  8
LAYER01
370
     5
390
0
  6
Continuous
 62
     7
100
AcDbHatch
 10
0.0
 20
0.0
 30
0.0
210
0.0
220
0.0
230
1.0
  2
_L-O---1
 70
     1
 71
     1
 91
        1
 92
        2
 72
     0
 73
     1
 93
        0
 97
        1
330
2CB
 75
     0
 76
     0
 98
        0
  0
LWPOLYLINE
  5
2CD
102
{ACAD_REACTORS
330
2CE
102
}
100
AcDbEntity
  8
HATCH_REACTORS
390
0
100
AcDbPolyline
 90
        4
 70
     1
 10
-348.061035
 20
232.112122
 10
-348.061035
 20
232.104675
 10
-348.09375
 20
232.104675
 10
-348.09375
 20
232.112122
  0
HATCH
  5
2CE
100
AcDbEntity
  8
LAYER01
370
     5
390
0
  6
Continuous
 62
     7
100
AcDbHatch
 10
0.0
 20
0.0
 30
0.0
210
0.0
220
0.0
230
1.0
  2
_L-O---1
 70
     1
 71
     1
 91
        1
 92
        2
 72
     0
 73
     1
 93
        0
 97
        1
330
2CD
 75
     0
 76
     0
 98
        0
  0
LWPOLYLINE
  5
2CF
102
{ACAD_REACTORS
330
2D0
102
}
100
AcDbEntity
  8
HATCH_REACTORS
390
0
100
AcDbPolyline
 90
        4
 70
     1
 10
-348.027344
 20
232.104675
 10
-348.027344
 20
232.09906
 10
-348.061035
 20
232.09906
 10
-348.061035
 20
232.104675
  0
HATCH
  5
2D0
100
AcDbEntity
  8
LAYER01
370
     5
390
0
  6
Continuous
 62
     7
100
AcDbHatch
 10
0.0
 20
0.0
 30
0.0
210
0.0
220
0.0
230
1.0
  2
_L-O---1
 70
     1
 71
     1
 91
        1
 92
        2
 72
     0
 73
     1
 93
        0
 97
        1
330
2CF
 75
     0
 76
     0
 98
        0
  0
LWPOLYLINE
  5
2D1
102
{ACAD_REACTORS
330
2D2
102
}
100
AcDbEntity
  8
HATCH_REACTORS
390
0
100
AcDbPolyline
 90
        4
 70
     1
 10
-347.993652
 20
232.09906
 10
-347.993652
 20
232.095276
 10
-348.027344
 20
232.095276
 10
-348.027344
 20
232.09906
  0
HATCH
  5
2D2
100
AcDbEntity
  8
LAYER01
370
     5
390
0
  6
Continuous
 62
     7
100
AcDbHatch
 10
0.0
 20
0.0
 30
0.0
210
0.0
220
0.0
230
1.0
  2
_L-O---1
 70
     1
 71
     1
 91
        1
 92
        2
 72
     0
 73
     1
 93
        0
 97
        1
330
2D1
 75
     0
 76
     0
 98
        0
  0
LWPOLYLINE
  5
2D3
102
{ACAD_REACTORS
330
2D4
102
}
100
AcDbEntity
  8
HATCH_REACTORS
390
0
100
AcDbPolyline
 90
        4
 70
     1
 10
-347.959961
 20
232.095276
 10
-347.959961
 20
232.093201
 10
-347.993652
 20
232.093201
 10
-347.993652
 20
232.095276
  0
HATCH
  5
2D4
100
AcDbEntity
  8
LAYER01
370
     5
390
0
  6
Continuous
 62
     7
100
AcDbHatch
 10
0.0
 20
0.0
 30
0.0
210
0.0
220
0.0
230
1.0
  2
_L-O---1
 70
     1
 71
     1
 91
        1
 92
        2
 72
     0
 73
     1
 93
        0
 97
        1
330
2D3
 75
     0
 76
     0
 98
        0
  0
LWPOLYLINE
  5
2D5
102
{ACAD_REACTORS
330
2D6
102
}
100
AcDbEntity
  8
HATCH_REACTORS
390
0
100
AcDbPolyline
 90
        4
 70
     1
 10
-347.92627
 20
232.093201
 10
-347.92627
 20
232.093079
 10
-347.959961
 20
232.093079
 10
-347.959961
 20
232.093201
  0
HATCH
  5
2D6
100
AcDbEntity
  8
LAYER01
370
     5
390
0
  6
Continuous
 62
     7
100
AcDbHatch
 10
0.0
 20
0.0
 30
0.0
210
0.0
220
0.0
230
1.0
  2
_L-O---1
 70
     1
 71
     1
 91
        1
 92
        2
 72
     0
 73
     1
 93
        0
 97
        1
330
2D5
 75
     0
 76
     0
 98
        0
  0
LWPOLYLINE
  5
2D7
102
{ACAD_REACTORS
330
2D8
102
}
100
AcDbEntity
  8
HATCH_REACTORS
390
0
100
AcDbPolyline
 90
        4
 70
     1
 10
-347.92627
 20
232.093079
 10
-347.92627
 20
232.094666
 10
-347.892578
 20
232.094666
 10
-347.892578
 20
232.093079
  0
HATCH
  5
2D8
100
AcDbEntity
  8
LAYER01
370
     5
390
0
  6
Continuous
 62
     7
100
AcDbHatch
 10
0.0
 20
0.0
 30
0.0
210
0.0
220
0.0
230
1.0
  2
_L-O---1
 70
     1
 71
     1
 91
        1
 92
        2
 72
     0
 73
     1
 93
        0
 97
        1
330
2D7
 75
     0
 76
     0
 98
        0
  0
LWPOLYLINE
  5
2D9
102
{ACAD_REACTORS
330
2DA
102
}
100
AcDbEntity
  8
HATCH_REACTORS
390
0
100
AcDbPolyline
 90
        4
 70
     1
 10
-347.892578
 20
232.094666
 10
-347.892578
 20
232.098206
 10
-347.858887
 20
232.098206
 10
-347.858887
 20
232.094666
  0
HATCH
  5
2DA
100
AcDbEntity
  8
LAYER01
370
     5
390
0
  6
Continuous
 62
     7
100
AcDbHatch
 10
0.0
 20
0.0
 30
0.0
210
0.0
220
0.0
230
1.0
  2
_L-O---1
 70
     1
 71
     1
 91
        1
 92
        2
 72
     0
 73
     1
 93
        0
 97
        1
330
2D9
 75
     0
 76
     0
 98
        0
  0
LWPOLYLINE
  5
2DB
102
{ACAD_REACTORS
330
2DC
102
}
100
AcDbEntity
  8
HATCH_REACTORS
390
0
100
AcDbPolyline
 90
        4
 70
     1
 10
-347.858887
 20
232.098206
 10
-347.858887
 20
232.103577
 10
-347.825195
 20
232.103577
 10
-347.825195
 20
232.098206
  0
HATCH
  5
2DC
100
AcDbEntity
  8
LAYER01
370
     5
390
0
  6
Continuous
 62
     7
100
AcDbHatch
 10
0.0
 20
0.0
 30
0.0
210
0.0
220
0.0
230
1.0
  2
_L-O---1
 70
     1
 71
     1
 91
        1
 92
        2
 72
     0
 73
     1
 93
        0
 97
        1
330
2DB
 75
     0
 76
     0
 98
        0
  0
LWPOLYLINE
  5
2DD
102
{ACAD_REACTORS
330
2DE
102
}
100
AcDbEntity
  8
HATCH_REACTORS
390
0
100
AcDbPolyline
 90
        4
 70
     1
 10
-347.825195
 20
232.103577
 10
-347.825195
 20
232.110657
 10
-347.791992
 20
232.110657
 10
-347.791992
 20
232.103577
  0
HATCH
  5
2DE
100
AcDbEntity
  8
LAYER01
370
     5
390
0
  6
Continuous
 62
     7
100
AcDbHatch
 10
0.0
 20
0.0
 30
0.0
210
0.0
220
0.0
230
1.0
  2
_L-O---1
 70
     1
 71
     1
 91
        1
 92
        2
 72
     0
 73
     1
 93
        0
 97
        1
330
2DD
 75
     0
 76
     0
 98
        0
  0
LWPOLYLINE
  5
2DF
102
{ACAD_REACTORS
330
2E0
102
}
100
AcDbEntity
  8
HATCH_REACTORS
390
0
100
AcDbPolyline
 90
        4
 70
     1
 10
-347.791992
 20
232.110657
 10
-347.791992
 20
232.119568
 10
-347.759766
 20
232.119568
 10
-347.759766
 20
232.110657
  0
HATCH
  5
2E0
100
AcDbEntity
  8
LAYER01
370
     5
390
0
  6
Continuous
 62
     7
100
AcDbHatch
 10
0.0
 20
0.0
 30
0.0
210
0.0
220
0.0
230
1.0
  2
_L-O---1
 70
     1
 71
     1
 91
        1
 92
        2
 72
     0
 73
     1
 93
        0
 97
        1
330
2DF
 75
     0
 76
     0
 98
        0
  0
LWPOLYLINE
  5
2E1
102
{ACAD_REACTORS
330
2E2
102
}
100
AcDbEntity
  8
HATCH_REACTORS
390
0
100
AcDbPolyline
 90
        4
 70
     1
 10
-347.759766
 20
232.119568
 10
-347.759766
 20
232.130188
 10
-347.727539
 20
232.130188
 10
-347.727539
 20
232.119568
  0
HATCH
  5
2E2
100
AcDbEntity
  8
LAYER01
370
     5
390
0
  6
Continuous
 62
     7
100
AcDbHatch
 10
0.0
 20
0.0
 30
0.0
210
0.0
220
0.0
230
1.0
  2
_L-O---1
 70
     1
 71
     1
 91
        1
 92
        2
 72
     0
 73
     1
 93
        0
 97
        1
330
2E1
 75
     0
 76
     0
 98
        0
  0
LWPOLYLINE
  5
2E3
102
{ACAD_REACTORS
330
2E4
102
}
100
AcDbEntity
  8
HATCH_REACTORS
390
0
100
AcDbPolyline
 90
        4
 70
     1
 10
-347.727539
 20
232.130188
 10
-347.727539
 20
232.142517
 10
-347.695801
 20
232.142517
 10
-347.695801
 20
232.130188
  0
HATCH
  5
2E4
100
AcDbEntity
  8
LAYER01
370
     5
390
0
  6
Continuous
 62
     7
100
AcDbHatch
 10
0.0
 20
0.0
 30
0.0
210
0.0
220
0.0
230
1.0
  2
_L-O---1
 70
     1
 71
     1
 91
        1
 92
        2
 72
     0
 73
     1
 93
        0
 97
        1
330
2E3
 75
     0
 76
     0
 98
        0
  0
LWPOLYLINE
  5
2E5
102
{ACAD_REACTORS
330
2E6
102
}
100
AcDbEntity
  8
HATCH_REACTORS
390
0
100
AcDbPolyline
 90
        4
 70
     1
 10
-347.695801
 20
232.142517
 10
-347.695801
 20
232.156677
 10
-347.665039
 20
232.156677
 10
-347.665039
 20
232.142517
  0
HATCH
  5
2E6
100
AcDbEntity
  8
LAYER01
370
     5
390
0
  6
Continuous
 62
     7
100
AcDbHatch
 10
0.0
 20
0.0
 30
0.0
210
0.0
220
0.0
230
1.0
  2
_L-O---1
 70
     1
 71
     1
 91
        1
 92
        2
 72
     0
 73
     1
 93
        0
 97
        1
330
2E5
 75
     0
 76
     0
 98
        0
  0
LWPOLYLINE
  5
2E7
102
{ACAD_REACTORS
330
2E8
102
}
100
AcDbEntity
  8
HATCH_REACTORS
390
0
100
AcDbPolyline
 90
        4
 70
     1
 10
-347.665039
 20
232.156677
 10
-347.665039
 20
232.172302
 10
-347.635254
 20
232.172302
 10
-347.635254
 20
232.156677
  0
HATCH
  5
2E8
100
AcDbEntity
  8
LAYER01
370
     5
390
0
  6
Continuous
 62
     7
100
AcDbHatch
 10
0.0
 20
0.0
 30
0.0
210
0.0
220
0.0
230
1.0
  2
_L-O---1
 70
     1
 71
     1
 91
        1
 92
        2
 72
     0
 73
     1
 93
        0
 97
        1
330
2E7
 75
     0
 76
     0
 98
        0
  0
LWPOLYLINE
  5
2E9
102
{ACAD_REACTORS
330
2EA
102
}
100
AcDbEntity
  8
HATCH_REACTORS
390
0
100
AcDbPolyline
 90
        4
 70
     1
 10
-347.635254
 20
232.172302
 10
-347.635254
 20
232.189636
 10
-347.605957
 20
232.189636
 10
-347.605957
 20
232.172302
  0
HATCH
  5
2EA
100
AcDbEntity
  8
LAYER01
370
     5
390
0
  6
Continuous
 62
     7
100
AcDbHatch
 10
0.0
 20
0.0
 30
0.0
210
0.0
220
0.0
230
1.0
  2
_L-O---1
 70
     1
 71
     1
 91
        1
 92
        2
 72
     0
 73
     1
 93
        0
 97
        1
330
2E9
 75
     0
 76
     0
 98
        0
  0
LWPOLYLINE
  5
2EB
102
{ACAD_REACTORS
330
2EC
102
}
100
AcDbEntity
  8
HATCH_REACTORS
390
0
100
AcDbPolyline
 90
        4
 70
     1
 10
-347.605957
 20
232.189636
 10
-347.605957
 20
232.208557
 10
-347.578125
 20
232.208557
 10
-347.578125
 20
232.189636
  0
HATCH
  5
2EC
100
AcDbEntity
  8
LAYER01
370
     5
390
0
  6
Continuous
 62
     7
100
AcDbHatch
 10
0.0
 20
0.0
 30
0.0
210
0.0
220
0.0
230
1.0
  2
_L-O---1
 70
     1
 71
     1
 91
        1
 92
        2
 72
     0
 73
     1
 93
        0
 97
        1
330
2EB
 75
     0
 76
     0
 98
        0
  0
LWPOLYLINE
  5
2ED
102
{ACAD_REACTORS
330
2EE
102
}
100
AcDbEntity
  8
HATCH_REACTORS
390
0
100
AcDbPolyline
 90
        4
 70
     1
 10
-347.578125
 20
232.208557
 10
-347.578125
 20
232.228821
 10
-347.550781
 20
232.228821
 10
-347.550781
 20
232.208557
  0
HATCH
  5
2EE
100
AcDbEntity
  8
LAYER01
370
     5
390
0
  6
Continuous
 62
     7
100
AcDbHatch
 10
0.0
 20
0.0
 30
0.0
210
0.0
220
0.0
230
1.0
  2
_L-O---1
 70
     1
 71
     1
 91
        1
 92
        2
 72
     0
 73
     1
 93
        0
 97
        1
330
2ED
 75
     0
 76
     0
 98
        0
  0
LWPOLYLINE
  5
2EF
102
{ACAD_REACTORS
330
2F0
102
}
100
AcDbEntity
  8
HATCH_REACTORS
390
0
100
AcDbPolyline
 90
        4
 70
     1
 10
-347.550781
 20
232.228821
 10
-347.550781
 20
232.250671
 10
-347.524902
 20
232.250671
 10
-347.524902
 20
232.228821
  0
HATCH
  5
2F0
100
AcDbEntity
  8
LAYER01
370
     5
390
0
  6
Continuous
 62
     7
100
AcDbHatch
 10
0.0
 20
0.0
 30
0.0
210
0.0
220
0.0
230
1.0
  2
_L-O---1
 70
     1
 71
     1
 91
        1
 92
        2
 72
     0
 73
     1
 93
        0
 97
        1
330
2EF
 75
     0
 76
     0
 98
        0
  0
LWPOLYLINE
  5
2F1
102
{ACAD_REACTORS
330
2F2
102
}
100
AcDbEntity
  8
HATCH_REACTORS
390
0
100
AcDbPolyline
 90
        4
 70
     1
 10
-347.524902
 20
232.250671
 10
-347.524902
 20
232.273865
 10
-347.500488
 20
232.273865
 10
-347.500488
 20
232.250671
  0
HATCH
  5
2F2
100
AcDbEntity
  8
LAYER01
370
     5
390
0
  6
Continuous
 62
     7
100
AcDbHatch
 10
0.0
 20
0.0
 30
0.0
210
0.0
220
0.0
230
1.0
  2
_L-O---1
 70
     1
 71
     1
 91
        1
 92
        2
 72
     0
 73
     1
 93
        0
 97
        1
330
2F1
 75
     0
 76
     0
 98
        0
  0
LWPOLYLINE
  5
2F3
102
{ACAD_REACTORS
330
2F4
102
}
100
AcDbEntity
  8
HATCH_REACTORS
390
0
100
AcDbPolyline
 90
        4
 70
     1
 10
-347.500488
 20
232.273865
 10
-347.500488
 20
232.298279
 10
-347.477051
 20
232.298279
 10
-347.477051
 20
232.273865
  0
HATCH
  5
2F4
100
AcDbEntity
  8
LAYER01
370
     5
390
0
  6
Continuous
 62
     7
100
AcDbHatch
 10
0.0
 20
0.0
 30
0.0
210
0.0
220
0.0
230
1.0
  2
_L-O---1
 70
     1
 71
     1
 91
        1
 92
        2
 72
     0
 73
     1
 93
        0
 97
        1
330
2F3
 75
     0
 76
     0
 98
        0
  0
LWPOLYLINE
  5
2F5
102
{ACAD_REACTORS
330
2F6
102
}
100
AcDbEntity
  8
HATCH_REACTORS
390
0
100
AcDbPolyline
 90
        4
 70
     1
 10
-347.477051
 20
232.298279
 10
-347.477051
 20
232.323914
 10
-347.455078
 20
232.323914
 10
-347.455078
 20
232.298279
  0
HATCH
  5
2F6
100
AcDbEntity
  8
LAYER01
370
     5
390
0
  6
Continuous
 62
     7
100
AcDbHatch
 10
0.0
 20
0.0
 30
0.0
210
0.0
220
0.0
230
1.0
  2
_L-O---1
 70
     1
 71
     1
 91
        1
 92
        2
 72
     0
 73
     1
 93
        0
 97
        1
330
2F5
 75
     0
 76
     0
 98
        0
  0
LWPOLYLINE
  5
2F7
102
{ACAD_REACTORS
330
2F8
102
}
100
AcDbEntity
  8
HATCH_REACTORS
390
0
100
AcDbPolyline
 90
        4
 70
     1
 10
-347.455078
 20
232.323914
 10
-347.455078
 20
232.350769
 10
-347.434082
 20
232.350769
 10
-347.434082
 20
232.323914
  0
HATCH
  5
2F8
100
AcDbEntity
  8
LAYER01
370
     5
390
0
  6
Continuous
 62
     7
100
AcDbHatch
 10
0.0
 20
0.0
 30
0.0
210
0.0
220
0.0
230
1.0
  2
_L-O---1
 70
     1
 71
     1
 91
        1
 92
        2
 72
     0
 73
     1
 93
        0
 97
        1
330
2F7
 75
     0
 76
     0
 98
        0
  0
LWPOLYLINE
  5
2F9
102
{ACAD_REACTORS
330
2FA
102
}
100
AcDbEntity
  8
HATCH_REACTORS
390
0
100
AcDbPolyline
 90
        4
 70
     1
 10
-347.434082
 20
232.350769
 10
-347.434082
 20
232.378723
 10
-347.415039
 20
232.378723
 10
-347.415039
 20
232.350769
  0
HATCH
  5
2FA
100
AcDbEntity
  8
LAYER01
370
     5
390
0
  6
Continuous
 62
     7
100
AcDbHatch
 10
0.0
 20
0.0
 30
0.0
210
0.0
220
0.0
230
1.0
  2
_L-O---1
 70
     1
 71
     1
 91
        1
 92
        2
 72
     0
 73
     1
 93
        0
 97
        1
330
2F9
 75
     0
 76
     0
 98
        0
  0
LWPOLYLINE
  5
2FB
102
{ACAD_REACTORS
330
2FC
102
}
100
AcDbEntity
  8
HATCH_REACTORS
390
0
100
AcDbPolyline
 90
        4
 70
     1
 10
-347.415039
 20
232.378723
 10
-347.415039
 20
232.407654
 10
-347.397461
 20
232.407654
 10
-347.397461
 20
232.378723
  0
HATCH
  5
2FC
100
AcDbEntity
  8
LAYER01
370
     5
390
0
  6
Continuous
 62
     7
100
AcDbHatch
 10
0.0
 20
0.0
 30
0.0
210
0.0
220
0.0
230
1.0
  2
_L-O---1
 70
     1
 71
     1
 91
        1
 92
        2
 72
     0
 73
     1
 93
        0
 97
        1
330
2FB
 75
     0
 76
     0
 98
        0
  0
LWPOLYLINE
  5
2FD
102
{ACAD_REACTORS
330
2FE
102
}
100
AcDbEntity
  8
HATCH_REACTORS
390
0
100
AcDbPolyline
 90
        4
 70
     1
 10
-347.397461
 20
232.407654
 10
-347.397461
 20
232.437439
 10
-347.381348
 20
232.437439
 10
-347.381348
 20
232.407654
  0
HATCH
  5
2FE
100
AcDbEntity
  8
LAYER01
370
     5
390
0
  6
Continuous
 62
     7
100
AcDbHatch
 10
0.0
 20
0.0
 30
0.0
210
0.0
220
0.0
230
1.0
  2
_L-O---1
 70
     1
 71
     1
 91
        1
 92
        2
 72
     0
 73
     1
 93
        0
 97
        1
330
2FD
 75
     0
 76
     0
 98
        0
  0
LWPOLYLINE
  5
2FF
102
{ACAD_REACTORS
330
300
102
}
100
AcDbEntity
  8
HATCH_REACTORS
390
0
100
AcDbPolyline
 90
        4
 70
     1
 10
-347.381348
 20
232.437439
 10
-347.381348
 20
232.468079
 10
-347.367188
 20
232.468079
 10
-347.367188
 20
232.437439
  0
HATCH
  5
300
100
AcDbEntity
  8
LAYER01
370
     5
390
0
  6
Continuous
 62
     7
100
AcDbHatch
 10
0.0
 20
0.0
 30
0.0
210
0.0
220
0.0
230
1.0
  2
_L-O---1
 70
     1
 71
     1
 91
        1
 92
        2
 72
     0
 73
     1
 93
        0
 97
        1
330
2FF
 75
     0
 76
     0
 98
        0
  0
LWPOLYLINE
  5
301
102
{ACAD_REACTORS
330
302
102
}
100
AcDbEntity
  8
HATCH_REACTORS
390
0
100
AcDbPolyline
 90
        4
 70
     1
 10
-347.367188
 20
232.468079
 10
-347.367188
 20
232.499573
 10
-347.354492
 20
232.499573
 10
-347.354492
 20
232.468079
  0
HATCH
  5
302
100
AcDbEntity
  8
LAYER01
370
     5
390
0
  6
Continuous
 62
     7
100
AcDbHatch
 10
0.0
 20
0.0
 30
0.0
210
0.0
220
0.0
230
1.0
  2
_L-O---1
 70
     1
 71
     1
 91
        1
 92
        2
 72
     0
 73
     1
 93
        0
 97
        1
330
301
 75
     0
 76
     0
 98
        0
  0
LWPOLYLINE
  5
303
102
{ACAD_REACTORS
330
304
102
}
100
AcDbEntity
  8
HATCH_REACTORS
390
0
100
AcDbPolyline
 90
        4
 70
     1
 10
-347.354492
 20
232.499573
 10
-347.354492
 20
232.531555
 10
-347.34375
 20
232.531555
 10
-347.34375
 20
232.499573
  0
HATCH
  5
304
100
AcDbEntity
  8
LAYER01
370
     5
390
0
  6
Continuous
 62
     7
100
AcDbHatch
 10
0.0
 20
0.0
 30
0.0
210
0.0
220
0.0
230
1.0
  2
_L-O---1
 70
     1
 71
     1
 91
        1
 92
        2
 72
     0
 73
     1
 93
        0
 97
        1
330
303
 75
     0
 76
     0
 98
        0
  0
LWPOLYLINE
  5
305
102
{ACAD_REACTORS
330
306
102
}
100
AcDbEntity
  8
HATCH_REACTORS
390
0
100
AcDbPolyline
 90
        4
 70
     1
 10
-347.34375
 20
232.531555
 10
-347.34375
 20
232.564148
 10
-347.334473
 20
232.564148
 10
-347.334473
 20
232.531555
  0
HATCH
  5
306
100
AcDbEntity
  8
LAYER01
370
     5
390
0
  6
Continuous
 62
     7
100
AcDbHatch
 10
0.0
 20
0.0
 30
0.0
210
0.0
220
0.0
230
1.0
  2
_L-O---1
 70
     1
 71
     1
 91
        1
 92
        2
 72
     0
 73
     1
 93
        0
 97
        1
330
305
 75
     0
 76
     0
 98
        0
  0
LWPOLYLINE
  5
307
102
{ACAD_REACTORS
330
308
102
}
100
AcDbEntity
  8
HATCH_REACTORS
390
0
100
AcDbPolyline
 90
        4
 70
     1
 10
-347.334473
 20
232.564148
 10
-347.334473
 20
232.597107
 10
-347.32666
 20
232.597107
 10
-347.32666
 20
232.564148
  0
HATCH
  5
308
100
AcDbEntity
  8
LAYER01
370
     5
390
0
  6
Continuous
 62
     7
100
AcDbHatch
 10
0.0
 20
0.0
 30
0.0
210
0.0
220
0.0
230
1.0
  2
_L-O---1
 70
     1
 71
     1
 91
        1
 92
        2
 72
     0
 73
     1
 93
        0
 97
        1
330
307
 75
     0
 76
     0
 98
        0
  0
LWPOLYLINE
  5
309
102
{ACAD_REACTORS
330
30A
102
}
100
AcDbEntity
  8
HATCH_REACTORS
390
0
100
AcDbPolyline
 90
        4
 70
     1
 10
-347.32666
 20
232.597107
 10
-347.32666
 20
232.630554
 10
-347.321289
 20
232.630554
 10
-347.321289
 20
232.597107
  0
HATCH
  5
30A
100
AcDbEntity
  8
LAYER01
370
     5
390
0
  6
Continuous
 62
     7
100
AcDbHatch
 10
0.0
 20
0.0
 30
0.0
210
0.0
220
0.0
230
1.0
  2
_L-O---1
 70
     1
 71
     1
 91
        1
 92
        2
 72
     0
 73
     1
 93
        0
 97
        1
330
309
 75
     0
 76
     0
 98
        0
  0
LWPOLYLINE
  5
30B
102
{ACAD_REACTORS
330
30C
102
}
100
AcDbEntity
  8
HATCH_REACTORS
390
0
100
AcDbPolyline
 90
        4
 70
     1
 10
-347.321289
 20
232.630554
 10
-347.321289
 20
232.664124
 10
-347.317383
 20
232.664124
 10
-347.317383
 20
232.630554
  0
HATCH
  5
30C
100
AcDbEntity
  8
LAYER01
370
     5
390
0
  6
Continuous
 62
     7
100
AcDbHatch
 10
0.0
 20
0.0
 30
0.0
210
0.0
220
0.0
230
1.0
  2
_L-O---1
 70
     1
 71
     1
 91
        1
 92
        2
 72
     0
 73
     1
 93
        0
 97
        1
330
30B
 75
     0
 76
     0
 98
        0
  0
LWPOLYLINE
  5
30D
102
{ACAD_REACTORS
330
30E
102
}
100
AcDbEntity
  8
HATCH_REACTORS
390
0
100
AcDbPolyline
 90
        4
 70
     1
 10
-347.317383
 20
232.664124
 10
-347.317383
 20
232.697937
 10
-347.31543
 20
232.697937
 10
-347.31543
 20
232.664124
  0
HATCH
  5
30E
100
AcDbEntity
  8
LAYER01
370
     5
390
0
  6
Continuous
 62
     7
100
AcDbHatch
 10
0.0
 20
0.0
 30
0.0
210
0.0
220
0.0
230
1.0
  2
_L-O---1
 70
     1
 71
     1
 91
        1
 92
        2
 72
     0
 73
     1
 93
        0
 97
        1
330
30D
 75
     0
 76
     0
 98
        0
  0
LWPOLYLINE
  5
30F
102
{ACAD_REACTORS
330
310
102
}
100
AcDbEntity
  8
HATCH_REACTORS
390
0
100
AcDbPolyline
 90
        4
 70
     1
 10
-347.31543
 20
232.697937
 10
-347.31543
 20
232.73175
 10
-347.31543
 20
232.73175
 10
-347.31543
 20
232.697937
  0
HATCH
  5
310
100
AcDbEntity
  8
LAYER01
370
     5
390
0
  6
Continuous
 62
     7
100
AcDbHatch
 10
0.0
 20
0.0
 30
0.0
210
0.0
220
0.0
230
1.0
  2
_L-O---1
 70
     1
 71
     1
 91
        1
 92
        2
 72
     0
 73
     1
 93
        0
 97
        1
330
30F
 75
     0
 76
     0
 98
        0
  0
LWPOLYLINE
  5
311
102
{ACAD_REACTORS
330
312
102
}
100
AcDbEntity
  8
HATCH_REACTORS
390
0
100
AcDbPolyline
 90
        4
 70
     1
 10
-347.316895
 20
232.73175
 10
-347.316895
 20
232.765564
 10
-347.31543
 20
232.765564
 10
-347.31543
 20
232.73175
  0
HATCH
  5
312
100
AcDbEntity
  8
LAYER01
370
     5
390
0
  6
Continuous
 62
     7
100
AcDbHatch
 10
0.0
 20
0.0
 30
0.0
210
0.0
220
0.0
230
1.0
  2
_L-O---1
 70
     1
 71
     1
 91
        1
 92
        2
 72
     0
 73
     1
 93
        0
 97
        1
330
311
 75
     0
 76
     0
 98
        0
  0
LWPOLYLINE
  5
313
102
{ACAD_REACTORS
330
314
102
}
100
AcDbEntity
  8
HATCH_REACTORS
390
0
100
AcDbPolyline
 90
        4
 70
     1
 10
-347.320313
 20
232.765564
 10
-347.320313
 20
232.799255
 10
-347.316895
 20
232.799255
 10
-347.316895
 20
232.765564
  0
HATCH
  5
314
100
AcDbEntity
  8
LAYER01
370
     5
390
0
  6
Continuous
 62
     7
100
AcDbHatch
 10
0.0
 20
0.0
 30
0.0
210
0.0
220
0.0
230
1.0
  2
_L-O---1
 70
     1
 71
     1
 91
        1
 92
        2
 72
     0
 73
     1
 93
        0
 97
        1
330
313
 75
     0
 76
     0
 98
        0
  0
LWPOLYLINE
  5
315
102
{ACAD_REACTORS
330
316
102
}
100
AcDbEntity
  8
HATCH_REACTORS
390
0
100
AcDbPolyline
 90
        4
 70
     1
 10
-347.325684
 20
232.799255
 10
-347.325684
 20
232.832703
 10
-347.320313
 20
232.832703
 10
-347.320313
 20
232.799255
  0
HATCH
  5
316
100
AcDbEntity
  8
LAYER01
370
     5
390
0
  6
Continuous
 62
     7
100
AcDbHatch
 10
0.0
 20
0.0
 30
0.0
210
0.0
220
0.0
230
1.0
  2
_L-O---1
 70
     1
 71
     1
 91
        1
 92
        2
 72
     0
 73
     1
 93
        0
 97
        1
330
315
 75
     0
 76
     0
 98
        0
  0
LWPOLYLINE
  5
317
102
{ACAD_REACTORS
330
318
102
}
100
AcDbEntity
  8
HATCH_REACTORS
390
0
100
AcDbPolyline
 90
        4
 70
     1
 10
-347.333008
 20
232.832703
 10
-347.333008
 20
232.865784
 10
-347.325684
 20
232.865784
 10
-347.325684
 20
232.832703
  0
HATCH
  5
318
100
AcDbEntity
  8
LAYER01
370
     5
390
0
  6
Continuous
 62
     7
100
AcDbHatch
 10
0.0
 20
0.0
 30
0.0
210
0.0
220
0.0
230
1.0
  2
_L-O---1
 70
     1
 71
     1
 91
        1
 92
        2
 72
     0
 73
     1
 93
        0
 97
        1
330
317
 75
     0
 76
     0
 98
        0
  0
LWPOLYLINE
  5
319
102
{ACAD_REACTORS
330
31A
102
}
100
AcDbEntity
  8
HATCH_REACTORS
390
0
100
AcDbPolyline
 90
        4
 70
     1
 10
-347.341797
 20
232.865784
 10
-347.341797
 20
232.898499
 10
-347.333008
 20
232.898499
 10
-347.333008
 20
232.865784
  0
HATCH
  5
31A
100
AcDbEntity
  8
LAYER01
370
     5
390
0
  6
Continuous
 62
     7
100
AcDbHatch
 10
0.0
 20
0.0
 30
0.0
210
0.0
220
0.0
230
1.0
  2
_L-O---1
 70
     1
 71
     1
 91
        1
 92
        2
 72
     0
 73
     1
 93
        0
 97
        1
330
319
 75
     0
 76
     0
 98
        0
  0
LWPOLYLINE
  5
31B
102
{ACAD_REACTORS
330
31C
102
}
100
AcDbEntity
  8
HATCH_REACTORS
390
0
100
AcDbPolyline
 90
        4
 70
     1
 10
-347.352539
 20
232.898499
 10
-347.352539
 20
232.930603
 10
-347.341797
 20
232.930603
 10
-347.341797
 20
232.898499
  0
HATCH
  5
31C
100
AcDbEntity
  8
LAYER01
370
     5
390
0
  6
Continuous
 62
     7
100
AcDbHatch
 10
0.0
 20
0.0
 30
0.0
210
0.0
220
0.0
230
1.0
  2
_L-O---1
 70
     1
 71
     1
 91
        1
 92
        2
 72
     0
 73
     1
 93
        0
 97
        1
330
31B
 75
     0
 76
     0
 98
        0
  0
LWPOLYLINE
  5
31D
102
{ACAD_REACTORS
330
31E
102
}
100
AcDbEntity
  8
HATCH_REACTORS
390
0
100
AcDbPolyline
 90
        4
 70
     1
 10
-347.364746
 20
232.930603
 10
-347.364746
 20
232.962097
 10
-347.352539
 20
232.962097
 10
-347.352539
 20
232.930603
  0
HATCH
  5
31E
100
AcDbEntity
  8
LAYER01
370
     5
390
0
  6
Continuous
 62
     7
100
AcDbHatch
 10
0.0
 20
0.0
 30
0.0
210
0.0
220
0.0
230
1.0
  2
_L-O---1
 70
     1
 71
     1
 91
        1
 92
        2
 72
     0
 73
     1
 93
        0
 97
        1
330
31D
 75
     0
 76
     0
 98
        0
  0
LWPOLYLINE
  5
31F
102
{ACAD_REACTORS
330
320
102
}
100
AcDbEntity
  8
HATCH_REACTORS
390
0
100
AcDbPolyline
 90
        4
 70
     1
 10
-347.378906
 20
232.962097
 10
-347.378906
 20
232.992859
 10
-347.364746
 20
232.992859
 10
-347.364746
 20
232.962097
  0
HATCH
  5
320
100
AcDbEntity
  8
LAYER01
370
     5
390
0
  6
Continuous
 62
     7
100
AcDbHatch
 10
0.0
 20
0.0
 30
0.0
210
0.0
220
0.0
230
1.0
  2
_L-O---1
 70
     1
 71
     1
 91
        1
 92
        2
 72
     0
 73
     1
 93
        0
 97
        1
330
31F
 75
     0
 76
     0
 98
        0
  0
LWPOLYLINE
  5
321
102
{ACAD_REACTORS
330
322
102
}
100
AcDbEntity
  8
HATCH_REACTORS
390
0
100
AcDbPolyline
 90
        4
 70
     1
 10
-347.394531
 20
232.992859
 10
-347.394531
 20
233.022888
 10
-347.378906
 20
233.022888
 10
-347.378906
 20
232.992859
  0
HATCH
  5
322
100
AcDbEntity
  8
LAYER01
370
     5
390
0
  6
Continuous
 62
     7
100
AcDbHatch
 10
0.0
 20
0.0
 30
0.0
210
0.0
220
0.0
230
1.0
  2
_L-O---1
 70
     1
 71
     1
 91
        1
 92
        2
 72
     0
 73
     1
 93
        0
 97
        1
330
321
 75
     0
 76
     0
 98
        0
  0
LWPOLYLINE
  5
323
102
{ACAD_REACTORS
330
324
102
}
100
AcDbEntity
  8
HATCH_REACTORS
390
0
100
AcDbPolyline
 90
        4
 70
     1
 10
-347.412109
 20
233.022888
 10
-347.412109
 20
233.051941
 10
-347.394531
 20
233.051941
 10
-347.394531
 20
233.022888
  0
HATCH
  5
324
100
AcDbEntity
  8
LAYER01
370
     5
390
0
  6
Continuous
 62
     7
100
AcDbHatch
 10
0.0
 20
0.0
 30
0.0
210
0.0
220
0.0
230
1.0
  2
_L-O---1
 70
     1
 71
     1
 91
        1
 92
        2
 72
     0
 73
     1
 93
        0
 97
        1
330
323
 75
     0
 76
     0
 98
        0
  0
LWPOLYLINE
  5
325
102
{ACAD_REACTORS
330
326
102
}
100
AcDbEntity
  8
HATCH_REACTORS
390
0
100
AcDbPolyline
 90
        4
 70
     1
 10
-347.430664
 20
233.051941
 10
-347.430664
 20
233.080017
 10
-347.412109
 20
233.080017
 10
-347.412109
 20
233.051941
  0
HATCH
  5
326
100
AcDbEntity
  8
LAYER01
370
     5
390
0
  6
Continuous
 62
     7
100
AcDbHatch
 10
0.0
 20
0.0
 30
0.0
210
0.0
220
0.0
230
1.0
  2
_L-O---1
 70
     1
 71
     1
 91
        1
 92
        2
 72
     0
 73
     1
 93
        0
 97
        1
330
325
 75
     0
 76
     0
 98
        0
  0
LWPOLYLINE
  5
327
102
{ACAD_REACTORS
330
328
102
}
100
AcDbEntity
  8
HATCH_REACTORS
390
0
100
AcDbPolyline
 90
        4
 70
     1
 10
-347.451172
 20
233.080017
 10
-347.451172
 20
233.107117
 10
-347.430664
 20
233.107117
 10
-347.430664
 20
233.080017
  0
HATCH
  5
328
100
AcDbEntity
  8
LAYER01
370
     5
390
0
  6
Continuous
 62
     7
100
AcDbHatch
 10
0.0
 20
0.0
 30
0.0
210
0.0
220
0.0
230
1.0
  2
_L-O---1
 70
     1
 71
     1
 91
        1
 92
        2
 72
     0
 73
     1
 93
        0
 97
        1
330
327
 75
     0
 76
     0
 98
        0
  0
LWPOLYLINE
  5
329
102
{ACAD_REACTORS
330
32A
102
}
100
AcDbEntity
  8
HATCH_REACTORS
390
0
100
AcDbPolyline
 90
        4
 70
     1
 10
-347.472656
 20
233.107117
 10
-347.472656
 20
233.132996
 10
-347.451172
 20
233.132996
 10
-347.451172
 20
233.107117
  0
HATCH
  5
32A
100
AcDbEntity
  8
LAYER01
370
     5
390
0
  6
Continuous
 62
     7
100
AcDbHatch
 10
0.0
 20
0.0
 30
0.0
210
0.0
220
0.0
230
1.0
  2
_L-O---1
 70
     1
 71
     1
 91
        1
 92
        2
 72
     0
 73
     1
 93
        0
 97
        1
330
329
 75
     0
 76
     0
 98
        0
  0
LWPOLYLINE
  5
32B
102
{ACAD_REACTORS
330
32C
102
}
100
AcDbEntity
  8
HATCH_REACTORS
390
0
100
AcDbPolyline
 90
        4
 70
     1
 10
-347.496094
 20
233.132996
 10
-347.496094
 20
233.157654
 10
-347.472656
 20
233.157654
 10
-347.472656
 20
233.132996
  0
HATCH
  5
32C
100
AcDbEntity
  8
LAYER01
370
     5
390
0
  6
Continuous
 62
     7
100
AcDbHatch
 10
0.0
 20
0.0
 30
0.0
210
0.0
220
0.0
230
1.0
  2
_L-O---1
 70
     1
 71
     1
 91
        1
 92
        2
 72
     0
 73
     1
 93
        0
 97
        1
330
32B
 75
     0
 76
     0
 98
        0
  0
LWPOLYLINE
  5
32D
102
{ACAD_REACTORS
330
32E
102
}
100
AcDbEntity
  8
HATCH_REACTORS
390
0
100
AcDbPolyline
 90
        4
 70
     1
 10
-347.520508
 20
233.157654
 10
-347.520508
 20
233.181091
 10
-347.496094
 20
233.181091
 10
-347.496094
 20
233.157654
  0
HATCH
  5
32E
100
AcDbEntity
  8
LAYER01
370
     5
390
0
  6
Continuous
 62
     7
100
AcDbHatch
 10
0.0
 20
0.0
 30
0.0
210
0.0
220
0.0
230
1.0
  2
_L-O---1
 70
     1
 71
     1
 91
        1
 92
        2
 72
     0
 73
     1
 93
        0
 97
        1
330
32D
 75
     0
 76
     0
 98
        0
  0
LWPOLYLINE
  5
32F
102
{ACAD_REACTORS
330
330
102
}
100
AcDbEntity
  8
HATCH_REACTORS
390
0
100
AcDbPolyline
 90
        4
 70
     1
 10
-347.546387
 20
233.181091
 10
-347.546387
 20
233.203064
 10
-347.520508
 20
233.203064
 10
-347.520508
 20
233.181091
  0
HATCH
  5
330
100
AcDbEntity
  8
LAYER01
370
     5
390
0
  6
Continuous
 62
     7
100
AcDbHatch
 10
0.0
 20
0.0
 30
0.0
210
0.0
220
0.0
230
1.0
  2
_L-O---1
 70
     1
 71
     1
 91
        1
 92
        2
 72
     0
 73
     1
 93
        0
 97
        1
330
32F
 75
     0
 76
     0
 98
        0
  0
LWPOLYLINE
  5
331
102
{ACAD_REACTORS
330
332
102
}
100
AcDbEntity
  8
HATCH_REACTORS
390
0
100
AcDbPolyline
 90
        4
 70
     1
 10
-347.573242
 20
233.203064
 10
-347.573242
 20
233.223694
 10
-347.546387
 20
233.223694
 10
-347.546387
 20
233.203064
  0
HATCH
  5
332
100
AcDbEntity
  8
LAYER01
370
     5
390
0
  6
Continuous
 62
     7
100
AcDbHatch
 10
0.0
 20
0.0
 30
0.0
210
0.0
220
0.0
230
1.0
  2
_L-O---1
 70
     1
 71
     1
 91
        1
 92
        2
 72
     0
 73
     1
 93
        0
 97
        1
330
331
 75
     0
 76
     0
 98
        0
  0
LWPOLYLINE
  5
333
102
{ACAD_REACTORS
330
334
102
}
100
AcDbEntity
  8
HATCH_REACTORS
390
0
100
AcDbPolyline
 90
        4
 70
     1
 10
-347.601074
 20
233.223694
 10
-347.601074
 20
233.242859
 10
-347.573242
 20
233.242859
 10
-347.573242
 20
233.223694
  0
HATCH
  5
334
100
AcDbEntity
  8
LAYER01
370
     5
390
0
  6
Continuous
 62
     7
100
AcDbHatch
 10
0.0
 20
0.0
 30
0.0
210
0.0
220
0.0
230
1.0
  2
_L-O---1
 70
     1
 71
     1
 91
        1
 92
        2
 72
     0
 73
     1
 93
        0
 97
        1
330
333
 75
     0
 76
     0
 98
        0
  0
LWPOLYLINE
  5
335
102
{ACAD_REACTORS
330
336
102
}
100
AcDbEntity
  8
HATCH_REACTORS
390
0
100
AcDbPolyline
 90
        4
 70
     1
 10
-347.629883
 20
233.242859
 10
-347.629883
 20
233.260437
 10
-347.601074
 20
233.260437
 10
-347.601074
 20
233.242859
  0
HATCH
  5
336
100
AcDbEntity
  8
LAYER01
370
     5
390
0
  6
Continuous
 62
     7
100
AcDbHatch
 10
0.0
 20
0.0
 30
0.0
210
0.0
220
0.0
230
1.0
  2
_L-O---1
 70
     1
 71
     1
 91
        1
 92
        2
 72
     0
 73
     1
 93
        0
 97
        1
330
335
 75
     0
 76
     0
 98
        0
  0
LWPOLYLINE
  5
337
102
{ACAD_REACTORS
330
338
102
}
100
AcDbEntity
  8
HATCH_REACTORS
390
0
100
AcDbPolyline
 90
        4
 70
     1
 10
-347.659668
 20
233.260437
 10
-347.659668
 20
233.276428
 10
-347.629883
 20
233.276428
 10
-347.629883
 20
233.260437
  0
HATCH
  5
338
100
AcDbEntity
  8
LAYER01
370
     5
390
0
  6
Continuous
 62
     7
100
AcDbHatch
 10
0.0
 20
0.0
 30
0.0
210
0.0
220
0.0
230
1.0
  2
_L-O---1
 70
     1
 71
     1
 91
        1
 92
        2
 72
     0
 73
     1
 93
        0
 97
        1
330
337
 75
     0
 76
     0
 98
        0
  0
LWPOLYLINE
  5
339
102
{ACAD_REACTORS
330
33A
102
}
100
AcDbEntity
  8
HATCH_REACTORS
390
0
100
AcDbPolyline
 90
        4
 70
     1
 10
-347.69043
 20
233.276428
 10
-347.69043
 20
233.290833
 10
-347.659668
 20
233.290833
 10
-347.659668
 20
233.276428
  0
HATCH
  5
33A
100
AcDbEntity
  8
LAYER01
370
     5
390
0
  6
Continuous
 62
     7
100
AcDbHatch
 10
0.0
 20
0.0
 30
0.0
210
0.0
220
0.0
230
1.0
  2
_L-O---1
 70
     1
 71
     1
 91
        1
 92
        2
 72
     0
 73
     1
 93
        0
 97
        1
330
339
 75
     0
 76
     0
 98
        0
  0
LWPOLYLINE
  5
33B
102
{ACAD_REACTORS
330
33C
102
}
100
AcDbEntity
  8
HATCH_REACTORS
390
0
100
AcDbPolyline
 90
        4
 70
     1
 10
-347.72168
 20
233.290833
 10
-347.72168
 20
233.303528
 10
-347.69043
 20
233.303528
 10
-347.69043
 20
233.290833
  0
HATCH
  5
33C
100
AcDbEntity
  8
LAYER01
370
     5
390
0
  6
Continuous
 62
     7
100
AcDbHatch
 10
0.0
 20
0.0
 30
0.0
210
0.0
220
0.0
230
1.0
  2
_L-O---1
 70
     1
 71
     1
 91
        1
 92
        2
 72
     0
 73
     1
 93
        0
 97
        1
330
33B
 75
     0
 76
     0
 98
        0
  0
LWPOLYLINE
  5
33D
102
{ACAD_REACTORS
330
33E
102
}
100
AcDbEntity
  8
HATCH_REACTORS
390
0
100
AcDbPolyline
 90
        4
 70
     1
 10
-347.753906
 20
233.303528
 10
-347.753906
 20
233.314514
 10
-347.72168
 20
233.314514
 10
-347.72168
 20
233.303528
  0
HATCH
  5
33E
100
AcDbEntity
  8
LAYER01
370
     5
390
0
  6
Continuous
 62
     7
100
AcDbHatch
 10
0.0
 20
0.0
 30
0.0
210
0.0
220
0.0
230
1.0
  2
_L-O---1
 70
     1
 71
     1
 91
        1
 92
        2
 72
     0
 73
     1
 93
        0
 97
        1
330
33D
 75
     0
 76
     0
 98
        0
  0
LWPOLYLINE
  5
33F
102
{ACAD_REACTORS
330
340
102
}
100
AcDbEntity
  8
HATCH_REACTORS
390
0
100
AcDbPolyline
 90
        4
 70
     1
 10
-347.786133
 20
233.314514
 10
-347.786133
 20
233.323669
 10
-347.753906
 20
233.323669
 10
-347.753906
 20
233.314514
  0
HATCH
  5
340
100
AcDbEntity
  8
LAYER01
370
     5
390
0
  6
Continuous
 62
     7
100
AcDbHatch
 10
0.0
 20
0.0
 30
0.0
210
0.0
220
0.0
230
1.0
  2
_L-O---1
 70
     1
 71
     1
 91
        1
 92
        2
 72
     0
 73
     1
 93
        0
 97
        1
330
33F
 75
     0
 76
     0
 98
        0
  0
LWPOLYLINE
  5
341
102
{ACAD_REACTORS
330
342
102
}
100
AcDbEntity
  8
HATCH_REACTORS
390
0
100
AcDbPolyline
 90
        4
 70
     1
 10
-347.819336
 20
233.323669
 10
-347.819336
 20
233.331116
 10
-347.786133
 20
233.331116
 10
-347.786133
 20
233.323669
  0
HATCH
  5
342
100
AcDbEntity
  8
LAYER01
370
     5
390
0
  6
Continuous
 62
     7
100
AcDbHatch
 10
0.0
 20
0.0
 30
0.0
210
0.0
220
0.0
230
1.0
  2
_L-O---1
 70
     1
 71
     1
 91
        1
 92
        2
 72
     0
 73
     1
 93
        0
 97
        1
330
341
 75
     0
 76
     0
 98
        0
  0
LWPOLYLINE
  5
343
102
{ACAD_REACTORS
330
344
102
}
100
AcDbEntity
  8
HATCH_REACTORS
390
0
100
AcDbPolyline
 90
        4
 70
     1
 10
-347.852539
 20
233.331116
 10
-347.852539
 20
233.336731
 10
-347.819336
 20
233.336731
 10
-347.819336
 20
233.331116
  0
HATCH
  5
344
100
AcDbEntity
  8
LAYER01
370
     5
390
0
  6
Continuous
 62
     7
100
AcDbHatch
 10
0.0
 20
0.0
 30
0.0
210
0.0
220
0.0
230
1.0
  2
_L-O---1
 70
     1
 71
     1
 91
        1
 92
        2
 72
     0
 73
     1
 93
        0
 97
        1
330
343
 75
     0
 76
     0
 98
        0
  0
LWPOLYLINE
  5
345
102
{ACAD_REACTORS
330
346
102
}
100
AcDbEntity
  8
HATCH_REACTORS
390
0
100
AcDbPolyline
 90
        4
 70
     1
 10
-347.88623
 20
233.336731
 10
-347.88623
 20
233.340637
 10
-347.852539
 20
233.340637
 10
-347.852539
 20
233.336731
  0
HATCH
  5
346
100
AcDbEntity
  8
LAYER01
370
     5
390
0
  6
Continuous
 62
     7
100
AcDbHatch
 10
0.0
 20
0.0
 30
0.0
210
0.0
220
0.0
230
1.0
  2
_L-O---1
 70
     1
 71
     1
 91
        1
 92
        2
 72
     0
 73
     1
 93
        0
 97
        1
330
345
 75
     0
 76
     0
 98
        0
  0
LWPOLYLINE
  5
347
102
{ACAD_REACTORS
330
348
102
}
100
AcDbEntity
  8
HATCH_REACTORS
390
0
100
AcDbPolyline
 90
        4
 70
     1
 10
-347.919922
 20
233.340637
 10
-347.919922
 20
233.34259
 10
-347.88623
 20
233.34259
 10
-347.88623
 20
233.340637
  0
HATCH
  5
348
100
AcDbEntity
  8
LAYER01
370
     5
390
0
  6
Continuous
 62
     7
100
AcDbHatch
 10
0.0
 20
0.0
 30
0.0
210
0.0
220
0.0
230
1.0
  2
_L-O---1
 70
     1
 71
     1
 91
        1
 92
        2
 72
     0
 73
     1
 93
        0
 97
        1
330
347
 75
     0
 76
     0
 98
        0
  0
LWPOLYLINE
  5
349
102
{ACAD_REACTORS
330
34A
102
}
100
AcDbEntity
  8
HATCH_REACTORS
390
0
100
AcDbPolyline
 90
        4
 70
     1
 10
-347.954102
 20
233.34259
 10
-347.954102
 20
233.342712
 10
-347.919922
 20
233.342712
 10
-347.919922
 20
233.34259
  0
HATCH
  5
34A
100
AcDbEntity
  8
LAYER01
370
     5
390
0
  6
Continuous
 62
     7
100
AcDbHatch
 10
0.0
 20
0.0
 30
0.0
210
0.0
220
0.0
230
1.0
  2
_L-O---1
 70
     1
 71
     1
 91
        1
 92
        2
 72
     0
 73
     1
 93
        0
 97
        1
330
349
 75
     0
 76
     0
 98
        0
  0
LWPOLYLINE
  5
34B
102
{ACAD_REACTORS
330
34C
102
}
100
AcDbEntity
  8
HATCH_REACTORS
390
0
100
AcDbPolyline
 90
        4
 70
     1
 10
-347.954102
 20
233.342712
 10
-347.954102
 20
233.341125
 10
-347.987793
 20
233.341125
 10
-347.987793
 20
233.342712
  0
HATCH
  5
34C
100
AcDbEntity
  8
LAYER01
370
     5
390
0
  6
Continuous
 62
     7
100
AcDbHatch
 10
0.0
 20
0.0
 30
0.0
210
0.0
220
0.0
230
1.0
  2
_L-O---1
 70
     1
 71
     1
 91
        1
 92
        2
 72
     0
 73
     1
 93
        0
 97
        1
330
34B
 75
     0
 76
     0
 98
        0
  0
LWPOLYLINE
  5
34D
100
AcDbEntity
  8
LAYER01
370
    13
390
0
  6
Continuous
 62
   213
100
AcDbPolyline
 90
        4
 70
     0
 10
-347.939941
 20
232.717957
 10
-349.253906
 20
291.855408
 10
-344.253906
 20
291.855408
 10
-313.036133
 20
291.855408
  0
LWPOLYLINE
  5
34E
100
AcDbEntity
  8
LAYER01
370
    25
390
0
  6
DASHDOT
 62
    92
100
AcDbPolyline
 90
        2
 70
     0
 10
-323.219238
 20
162.098938
 10
-338.0
 20
162.098938
  0
LWPOLYLINE
  5
34F
100
AcDbEntity
  8
LAYER01
370
    35
390
0
  6
Continuous
 62
   134
100
AcDbPolyline
 90
        2
 70
     0
 10
-330.0
 20
159.098938
 10
-338.0
 20
159.098938
  0
LWPOLYLINE
  5
350
100
AcDbEntity
  8
LAYER01
370
    35
390
0
  6
Continuous
 62
   134
100
AcDbPolyline
 90
        2
 70
     0
 10
-330.0
 20
165.098938
 10
-338.0
 20
165.098938
  0
LWPOLYLINE
  5
351
100
AcDbEntity
  8
LAYER01
370
    35
390
0
  6
Continuous
 62
   134
100
AcDbPolyline
 90
        2
 70
     0
 10
-330.0
 20
164.498962
 10
-338.0
 20
164.498962
  0
LWPOLYLINE
  5
352
100
AcDbEntity
  8
LAYER01
370
    35
390
0
  6
Continuous
 62
   134
100
AcDbPolyline
 90
        2
 70
     0
 10
-330.0
 20
159.699036
 10
-338.0
 20
159.699036
  0
LWPOLYLINE
  5
353
100
AcDbEntity
  8
LAYER01
370
    35
390
0
  6
Continuous
 62
   134
100
AcDbPolyline
 90
        2
 70
     0
 10
-325.399902
 20
165.052917
 10
-325.399902
 20
159.145081
  0
LWPOLYLINE
  5
354
100
AcDbEntity
  8
LAYER01
370
    13
390
0
  6
Continuous
 62
   213
100
AcDbPolyline
 90
        2
 70
     0
 10
-325.399902
 20
160.558289
 42
0.626098
 10
-325.399902
 20
163.639587
  0
LWPOLYLINE
  5
355
100
AcDbEntity
  8
LAYER01
370
    13
390
0
  6
Continuous
 62
   213
100
AcDbPolyline
 90
        2
 70
     0
 10
-325.399902
 20
165.052917
 42
0.423414
 10
-328.399902
 20
165.674622
  0
LWPOLYLINE
  5
356
100
AcDbEntity
  8
LAYER01
370
    13
390
0
  6
Continuous
 62
   213
100
AcDbPolyline
 90
        2
 70
     0
 10
-328.399902
 20
158.523254
 42
0.423414
 10
-325.399902
 20
159.145081
  0
LWPOLYLINE
  5
357
100
AcDbEntity
  8
LAYER01
370
    35
390
0
  6
Continuous
 62
   134
100
AcDbPolyline
 90
        2
 70
     0
 10
-330.0
 20
219.435242
 10
-330.0
 20
229.435242
  0
LWPOLYLINE
  5
358
100
AcDbEntity
  8
LAYER01
370
    35
390
0
  6
Continuous
 62
   134
100
AcDbPolyline
 90
        2
 70
     0
 10
-330.0
 20
229.435242
 10
-338.0
 20
229.435242
  0
LWPOLYLINE
  5
359
100
AcDbEntity
  8
LAYER01
370
    35
390
0
  6
Continuous
 62
   134
100
AcDbPolyline
 90
        7
 70
     1
 10
-339.5
 20
168.098938
 10
-339.5
 20
156.098938
 42
0.414214
 10
-338.5
 20
155.098938
 10
-338.0
 20
155.098938
 10
-338.0
 20
169.098938
 10
-338.5
 20
169.098938
 42
0.414214
 10
-339.5
 20
168.098938
  0
INSERT
  5
369
100
AcDbEntity
  8
LAYER01
390
0
100
AcDbBlockReference
  2
_D---BQM_U_89
 10
-1677.21582
 20
-49.174988
 30
0.0
  0
LWPOLYLINE
  5
36A
100
AcDbEntity
  8
LAYER01
370
    25
390
0
  6
Continuous
 62
    92
100
AcDbPolyline
 90
        2
 70
     0
 10
-406.348145
 20
114.104675
 10
-338.0
 20
114.104675
  0
INSERT
  5
377
100
AcDbEntity
  8
LAYER01
390
0
100
AcDbBlockReference
  2
_D---BRW_U_89
 10
-378.94873
 20
2490.802979
 30
0.0
 50
270.0
  0
LWPOLYLINE
  5
378
100
AcDbEntity
  8
LAYER98
370
    18
390
0
  6
Continuous
 62
     7
100
AcDbPolyline
 90
        2
 70
     0
 10
-330.0
 20
-20.648621
 10
-330.0
 20
-0.000061
  0
INSERT
  5
37D
100
AcDbEntity
  8
LAYER01
390
0
100
AcDbBlockReference
  2
T-ROCKP__U_M_89
 10
-367.21582
 20
114.104675
 30
0.0
 50
180.0
  0
INSERT
  5
383
100
AcDbEntity
  8
LAYER01
390
0
100
AcDbBlockReference
  2
T-VENTIL_U_89
 10
-317.21582
 20
3.825012
 30
0.0
 50
90.0
  0
INSERT
  5
388
100
AcDbEntity
  8
LAYER01
390
0
100
AcDbBlockReference
  2
T-VENTIL_U_892
 10
-327.21582
 20
291.855408
 30
0.0
  0
INSERT
  5
38E
100
AcDbEntity
  8
LAYER01
390
0
100
AcDbBlockReference
  2
T-ACHTER_U_89
 10
-342.21582
 20
-116.174988
 30
0.0
  0
LWPOLYLINE
  5
38F
102
{ACAD_REACTORS
330
390
102
}
100
AcDbEntity
  8
HATCH_REACTORS
390
0
100
AcDbPolyline
 90
        4
 70
     1
 10
-338.0
 20
159.098938
 10
-330.0
 20
159.098938
 10
-330.0
 20
-0.000061
 10
-338.0
 20
-0.000061
  0
HATCH
  5
390
100
AcDbEntity
  8
LAYER49
370
    13
390
0
  6
Continuous
 62
   213
100
AcDbHatch
 10
0.0
 20
0.0
 30
0.0
210
0.0
220
0.0
230
1.0
  2
~A--G#X~
 70
     0
 71
     1
 91
        1
 92
        2
 72
     0
 73
     1
 93
        4
 10
-338.0
 20
159.09893798828125
 10
-330.0
 20
159.09893798828125
 10
-330.0
 20
-0.00006103515625
 10
-338.0
 20
-0.00006103515625
 97
        1
330
38F
 75
     0
 76
     0
 52
0.0
 41
1.0
 77
     0
 78
     1
 53
360.0
 43
-795.273987
 44
-5070.78418
 45
0.0000000000000001
 46
0.300000011920929
 79
     0
 98
        0
  0
LWPOLYLINE
  5
392
100
AcDbEntity
  8
LAYER49
370
    25
390
0
  6
Continuous
 62
    92
100
AcDbPolyline
 90
        2
 70
     0
 10
-330.0
 20
159.098938
 10
-330.0
 20
-0.000061
  0
LWPOLYLINE
  5
393
100
AcDbEntity
  8
LAYER49
370
    25
390
0
  6
Continuous
 62
    92
100
AcDbPolyline
 90
        2
 70
     0
 10
-338.0
 20
-0.000061
 10
-338.0
 20
159.098938
  0
LWPOLYLINE
  5
394
100
AcDbEntity
  8
LAYER49
370
    25
390
0
  6
Continuous
 62
    92
100
AcDbPolyline
 90
        2
 70
     0
 10
-338.0
 20
159.098938
 10
-330.0
 20
159.098938
  0
LWPOLYLINE
  5
395
100
AcDbEntity
  8
LAYER49
370
    25
390
0
  6
Continuous
 62
    92
100
AcDbPolyline
 90
        2
 70
     0
 10
-330.0
 20
-0.000061
 10
-338.0
 20
-0.000061
  0
LWPOLYLINE
  5
396
102
{ACAD_REACTORS
330
397
102
}
100
AcDbEntity
  8
HATCH_REACTORS
390
0
100
AcDbPolyline
 90
        4
 70
     1
 10
-338.0
 20
229.435242
 10
-330.0
 20
229.435242
 10
-330.0
 20
165.098938
 10
-338.0
 20
165.098938
  0
HATCH
  5
397
100
AcDbEntity
  8
LAYER49
370
    13
390
0
  6
Continuous
 62
   213
100
AcDbHatch
 10
0.0
 20
0.0
 30
0.0
210
0.0
220
0.0
230
1.0
  2
~A--G#X~
 70
     0
 71
     1
 91
        1
 92
        2
 72
     0
 73
     1
 93
        4
 10
-338.0
 20
229.43524169921875
 10
-330.0
 20
229.43524169921875
 10
-330.0
 20
165.09893798828125
 10
-338.0
 20
165.09893798828125
 97
        1
330
396
 75
     0
 76
     0
 52
0.0
 41
1.0
 77
     0
 78
     1
 53
360.0
 43
-865.610229
 44
-5070.78418
 45
0.0000000000000001
 46
0.300000011920929
 79
     0
 98
        0
  0
LWPOLYLINE
  5
398
100
AcDbEntity
  8
LAYER49
370
    25
390
0
  6
Continuous
 62
    92
100
AcDbPolyline
 90
        2
 70
     0
 10
-330.0
 20
229.435242
 10
-330.0
 20
165.098938
  0
LWPOLYLINE
  5
399
100
AcDbEntity
  8
LAYER49
370
    25
390
0
  6
Continuous
 62
    92
100
AcDbPolyline
 90
        2
 70
     0
 10
-338.0
 20
165.098938
 10
-338.0
 20
229.435242
  0
LWPOLYLINE
  5
39A
100
AcDbEntity
  8
LAYER49
370
    25
390
0
  6
Continuous
 62
    92
100
AcDbPolyline
 90
        2
 70
     0
 10
-338.0
 20
229.435242
 10
-330.0
 20
229.435242
  0
LWPOLYLINE
  5
39B
100
AcDbEntity
  8
LAYER49
370
    25
390
0
  6
Continuous
 62
    92
100
AcDbPolyline
 90
        2
 70
     0
 10
-330.0
 20
165.098938
 10
-338.0
 20
165.098938
  0
ENDBLK
  5
39C
100
AcDbEntity
  8
0
390
0
100
AcDbBlockEnd
  0
BLOCK
  5
46
100
AcDbEntity
  8
0
390
0
100
AcDbBlockBegin
  2
HATCH-DP_U_89
 70
     0
 10
0.0
 20
0.0
 30
0.0
  3
HATCH-DP_U_89
  1

  0
LWPOLYLINE
  5
47
100
AcDbEntity
  8
LAYER01
370
    13
390
0
  6
Continuous
 62
   213
100
AcDbPolyline
 90
        2
 70
     0
 10
1480.95166
 20
322.227905
 10
1477.907715
 20
325.271606
  0
LWPOLYLINE
  5
48
100
AcDbEntity
  8
LAYER01
370
    13
390
0
  6
Continuous
 62
   213
100
AcDbPolyline
 90
        2
 70
     0
 10
1476.395508
 20
322.293823
 10
1473.352051
 20
325.337524
  0
LWPOLYLINE
  5
49
100
AcDbEntity
  8
LAYER01
370
    13
390
0
  6
Continuous
 62
   213
100
AcDbPolyline
 90
        2
 70
     0
 10
1471.839355
 20
322.359741
 10
1468.795898
 20
325.403564
  0
LWPOLYLINE
  5
4A
100
AcDbEntity
  8
LAYER01
370
    13
390
0
  6
Continuous
 62
   213
100
AcDbPolyline
 90
        2
 70
     0
 10
1467.283203
 20
322.425781
 10
1464.239746
 20
325.469482
  0
LWPOLYLINE
  5
4B
100
AcDbEntity
  8
LAYER01
370
    13
390
0
  6
Continuous
 62
   213
100
AcDbPolyline
 90
        2
 70
     0
 10
1462.727539
 20
322.491699
 10
1459.683594
 20
325.535522
  0
LWPOLYLINE
  5
4C
100
AcDbEntity
  8
LAYER01
370
    13
390
0
  6
Continuous
 62
   213
100
AcDbPolyline
 90
        2
 70
     0
 10
1458.171387
 20
322.557617
 10
1455.127441
 20
325.60144
  0
LWPOLYLINE
  5
4D
100
AcDbEntity
  8
LAYER01
370
    13
390
0
  6
Continuous
 62
   213
100
AcDbPolyline
 90
        2
 70
     0
 10
1453.615234
 20
322.623657
 10
1450.571289
 20
325.667358
  0
LWPOLYLINE
  5
4E
100
AcDbEntity
  8
LAYER01
370
    13
390
0
  6
Continuous
 62
   213
100
AcDbPolyline
 90
        2
 70
     0
 10
1449.059082
 20
322.689575
 10
1446.015137
 20
325.733398
  0
LWPOLYLINE
  5
4F
100
AcDbEntity
  8
LAYER01
370
    13
390
0
  6
Continuous
 62
   213
100
AcDbPolyline
 90
        2
 70
     0
 10
1444.50293
 20
322.755615
 10
1441.458984
 20
325.799316
  0
LWPOLYLINE
  5
50
100
AcDbEntity
  8
LAYER01
370
    13
390
0
  6
Continuous
 62
   213
100
AcDbPolyline
 90
        2
 70
     0
 10
1439.946777
 20
322.821533
 10
1436.90332
 20
325.865234
  0
LWPOLYLINE
  5
51
100
AcDbEntity
  8
LAYER01
370
    13
390
0
  6
Continuous
 62
   213
100
AcDbPolyline
 90
        2
 70
     0
 10
1435.390625
 20
322.887451
 10
1432.347168
 20
325.931274
  0
LWPOLYLINE
  5
52
100
AcDbEntity
  8
LAYER01
370
    13
390
0
  6
Continuous
 62
   213
100
AcDbPolyline
 90
        2
 70
     0
 10
1430.834473
 20
322.953491
 10
1427.791016
 20
325.997192
  0
LWPOLYLINE
  5
53
100
AcDbEntity
  8
LAYER01
370
    13
390
0
  6
Continuous
 62
   213
100
AcDbPolyline
 90
        2
 70
     0
 10
1426.278809
 20
323.019409
 10
1423.234863
 20
326.063232
  0
LWPOLYLINE
  5
54
100
AcDbEntity
  8
LAYER01
370
    13
390
0
  6
Continuous
 62
   213
100
AcDbPolyline
 90
        2
 70
     0
 10
1421.722656
 20
323.085449
 10
1418.678711
 20
326.12915
  0
LWPOLYLINE
  5
55
100
AcDbEntity
  8
LAYER01
370
    13
390
0
  6
Continuous
 62
   213
100
AcDbPolyline
 90
        2
 70
     0
 10
1417.166504
 20
323.151367
 10
1414.122559
 20
326.195068
  0
LWPOLYLINE
  5
56
100
AcDbEntity
  8
LAYER01
370
    13
390
0
  6
Continuous
 62
   213
100
AcDbPolyline
 90
        2
 70
     0
 10
1412.610352
 20
323.217285
 10
1409.566406
 20
326.261108
  0
LWPOLYLINE
  5
57
100
AcDbEntity
  8
LAYER01
370
    13
390
0
  6
Continuous
 62
   213
100
AcDbPolyline
 90
        2
 70
     0
 10
1408.054199
 20
323.283325
 10
1405.010254
 20
326.327026
  0
LWPOLYLINE
  5
58
100
AcDbEntity
  8
LAYER01
370
    13
390
0
  6
Continuous
 62
   213
100
AcDbPolyline
 90
        2
 70
     0
 10
1403.498047
 20
323.349243
 10
1400.454102
 20
326.393066
  0
LWPOLYLINE
  5
59
100
AcDbEntity
  8
LAYER01
370
    13
390
0
  6
Continuous
 62
   213
100
AcDbPolyline
 90
        2
 70
     0
 10
1398.941895
 20
323.415161
 10
1395.898438
 20
326.458984
  0
LWPOLYLINE
  5
5A
100
AcDbEntity
  8
LAYER01
370
    13
390
0
  6
Continuous
 62
   213
100
AcDbPolyline
 90
        2
 70
     0
 10
1394.385742
 20
323.481201
 10
1391.342285
 20
326.524902
  0
LWPOLYLINE
  5
5B
100
AcDbEntity
  8
LAYER01
370
    13
390
0
  6
Continuous
 62
   213
100
AcDbPolyline
 90
        2
 70
     0
 10
1389.82959
 20
323.547119
 10
1386.786133
 20
326.590942
  0
LWPOLYLINE
  5
5C
100
AcDbEntity
  8
LAYER01
370
    13
390
0
  6
Continuous
 62
   213
100
AcDbPolyline
 90
        2
 70
     0
 10
1385.273926
 20
323.613159
 10
1382.22998
 20
326.65686
  0
LWPOLYLINE
  5
5D
100
AcDbEntity
  8
LAYER01
370
    13
390
0
  6
Continuous
 62
   213
100
AcDbPolyline
 90
        2
 70
     0
 10
1380.717773
 20
323.679077
 10
1377.673828
 20
326.7229
  0
LWPOLYLINE
  5
5E
100
AcDbEntity
  8
LAYER01
370
    13
390
0
  6
Continuous
 62
   213
100
AcDbPolyline
 90
        2
 70
     0
 10
1376.161621
 20
323.744995
 10
1373.117676
 20
326.788818
  0
LWPOLYLINE
  5
5F
100
AcDbEntity
  8
LAYER01
370
    13
390
0
  6
Continuous
 62
   213
100
AcDbPolyline
 90
        2
 70
     0
 10
1371.605469
 20
323.811035
 10
1368.561523
 20
326.854736
  0
LWPOLYLINE
  5
60
100
AcDbEntity
  8
LAYER01
370
    13
390
0
  6
Continuous
 62
   213
100
AcDbPolyline
 90
        2
 70
     0
 10
1367.049316
 20
323.876953
 10
1364.005371
 20
326.920776
  0
LWPOLYLINE
  5
61
100
AcDbEntity
  8
LAYER01
370
    13
390
0
  6
Continuous
 62
   213
100
AcDbPolyline
 90
        2
 70
     0
 10
1362.493164
 20
323.942993
 10
1359.449707
 20
326.986694
  0
LWPOLYLINE
  5
62
100
AcDbEntity
  8
LAYER01
370
    13
390
0
  6
Continuous
 62
   213
100
AcDbPolyline
 90
        2
 70
     0
 10
1357.937012
 20
324.008911
 10
1354.893555
 20
327.052612
  0
LWPOLYLINE
  5
63
100
AcDbEntity
  8
LAYER01
370
    13
390
0
  6
Continuous
 62
   213
100
AcDbPolyline
 90
        2
 70
     0
 10
1353.380859
 20
324.074829
 10
1350.337402
 20
327.118652
  0
LWPOLYLINE
  5
64
100
AcDbEntity
  8
LAYER01
370
    13
390
0
  6
Continuous
 62
   213
100
AcDbPolyline
 90
        2
 70
     0
 10
1348.825195
 20
324.140869
 10
1345.78125
 20
327.18457
  0
LWPOLYLINE
  5
65
100
AcDbEntity
  8
LAYER01
370
    13
390
0
  6
Continuous
 62
   213
100
AcDbPolyline
 90
        2
 70
     0
 10
1344.269043
 20
324.206787
 10
1341.225098
 20
327.25061
  0
LWPOLYLINE
  5
66
100
AcDbEntity
  8
LAYER01
370
    13
390
0
  6
Continuous
 62
   213
100
AcDbPolyline
 90
        2
 70
     0
 10
1339.712891
 20
324.272827
 10
1336.668945
 20
327.316528
  0
LWPOLYLINE
  5
67
100
AcDbEntity
  8
LAYER01
370
    13
390
0
  6
Continuous
 62
   213
100
AcDbPolyline
 90
        2
 70
     0
 10
1335.156738
 20
324.338745
 10
1332.112793
 20
327.382446
  0
LWPOLYLINE
  5
68
100
AcDbEntity
  8
LAYER01
370
    13
390
0
  6
Continuous
 62
   213
100
AcDbPolyline
 90
        2
 70
     0
 10
1330.600586
 20
324.404663
 10
1327.556641
 20
327.448486
  0
LWPOLYLINE
  5
69
100
AcDbEntity
  8
LAYER01
370
    13
390
0
  6
Continuous
 62
   213
100
AcDbPolyline
 90
        2
 70
     0
 10
1326.044434
 20
324.470703
 10
1323.000977
 20
327.514404
  0
LWPOLYLINE
  5
6A
100
AcDbEntity
  8
LAYER01
370
    13
390
0
  6
Continuous
 62
   213
100
AcDbPolyline
 90
        2
 70
     0
 10
1321.488281
 20
324.536621
 10
1318.444824
 20
327.580444
  0
LWPOLYLINE
  5
6B
100
AcDbEntity
  8
LAYER01
370
    13
390
0
  6
Continuous
 62
   213
100
AcDbPolyline
 90
        2
 70
     0
 10
1316.932129
 20
324.602539
 10
1313.888672
 20
327.646362
  0
LWPOLYLINE
  5
6C
100
AcDbEntity
  8
LAYER01
370
    13
390
0
  6
Continuous
 62
   213
100
AcDbPolyline
 90
        2
 70
     0
 10
1312.376465
 20
324.668579
 10
1309.33252
 20
327.71228
  0
LWPOLYLINE
  5
6D
100
AcDbEntity
  8
LAYER01
370
    13
390
0
  6
Continuous
 62
   213
100
AcDbPolyline
 90
        2
 70
     0
 10
1307.820313
 20
324.734497
 10
1305.115723
 20
327.439087
  0
LWPOLYLINE
  5
6E
100
AcDbEntity
  8
LAYER01
370
    13
390
0
  6
Continuous
 62
   213
100
AcDbPolyline
 90
        2
 70
     0
 10
1306.45166
 20
321.612793
 10
1303.45166
 20
324.612793
  0
LWPOLYLINE
  5
6F
100
AcDbEntity
  8
LAYER01
370
    13
390
0
  6
Continuous
 62
   213
100
AcDbPolyline
 90
        2
 70
     0
 10
1306.45166
 20
317.122559
 10
1303.45166
 20
320.122559
  0
LWPOLYLINE
  5
70
100
AcDbEntity
  8
LAYER01
370
    13
390
0
  6
Continuous
 62
   213
100
AcDbPolyline
 90
        2
 70
     0
 10
1306.45166
 20
312.632446
 10
1303.45166
 20
315.632446
  0
LWPOLYLINE
  5
71
100
AcDbEntity
  8
LAYER01
370
    13
390
0
  6
Continuous
 62
   213
100
AcDbPolyline
 90
        2
 70
     0
 10
1306.45166
 20
308.142334
 10
1303.45166
 20
311.142334
  0
LWPOLYLINE
  5
72
100
AcDbEntity
  8
LAYER01
370
    13
390
0
  6
Continuous
 62
   213
100
AcDbPolyline
 90
        2
 70
     0
 10
1306.45166
 20
303.652222
 10
1303.45166
 20
306.652222
  0
LWPOLYLINE
  5
73
100
AcDbEntity
  8
LAYER01
370
    13
390
0
  6
Continuous
 62
   213
100
AcDbPolyline
 90
        2
 70
     0
 10
1306.45166
 20
299.162109
 10
1303.45166
 20
302.162109
  0
LWPOLYLINE
  5
74
100
AcDbEntity
  8
LAYER01
370
    13
390
0
  6
Continuous
 62
   213
100
AcDbPolyline
 90
        2
 70
     0
 10
1306.45166
 20
294.671997
 10
1303.45166
 20
297.671997
  0
LWPOLYLINE
  5
75
100
AcDbEntity
  8
LAYER01
370
    13
390
0
  6
Continuous
 62
   213
100
AcDbPolyline
 90
        2
 70
     0
 10
1306.45166
 20
290.181885
 10
1303.45166
 20
293.181885
  0
LWPOLYLINE
  5
76
100
AcDbEntity
  8
LAYER01
370
    13
390
0
  6
Continuous
 62
   213
100
AcDbPolyline
 90
        2
 70
     0
 10
1306.45166
 20
285.691772
 10
1303.45166
 20
288.691772
  0
LWPOLYLINE
  5
77
100
AcDbEntity
  8
LAYER01
370
    13
390
0
  6
Continuous
 62
   213
100
AcDbPolyline
 90
        2
 70
     0
 10
1306.45166
 20
281.201538
 10
1303.45166
 20
284.201538
  0
LWPOLYLINE
  5
78
100
AcDbEntity
  8
LAYER01
370
    13
390
0
  6
Continuous
 62
   213
100
AcDbPolyline
 90
        2
 70
     0
 10
1319.001465
 20
264.161987
 10
1317.179688
 20
265.983765
  0
LWPOLYLINE
  5
79
100
AcDbEntity
  8
LAYER01
370
    13
390
0
  6
Continuous
 62
   213
100
AcDbPolyline
 90
        2
 70
     0
 10
1306.45166
 20
276.711426
 10
1303.45166
 20
279.711426
  0
LWPOLYLINE
  5
7A
100
AcDbEntity
  8
LAYER01
370
    13
390
0
  6
Continuous
 62
   213
100
AcDbPolyline
 90
        2
 70
     0
 10
1317.044922
 20
261.628296
 10
1314.964355
 20
263.708862
  0
LWPOLYLINE
  5
7B
100
AcDbEntity
  8
LAYER01
370
    13
390
0
  6
Continuous
 62
   213
100
AcDbPolyline
 90
        2
 70
     0
 10
1306.45166
 20
272.221313
 10
1303.45166
 20
275.221313
  0
LWPOLYLINE
  5
7C
100
AcDbEntity
  8
LAYER01
370
    13
390
0
  6
Continuous
 62
   213
100
AcDbPolyline
 90
        2
 70
     0
 10
1314.82959
 20
259.353394
 10
1312.749023
 20
261.43396
  0
LWPOLYLINE
  5
7D
100
AcDbEntity
  8
LAYER01
370
    13
390
0
  6
Continuous
 62
   213
100
AcDbPolyline
 90
        2
 70
     0
 10
1306.45166
 20
267.731201
 10
1303.45166
 20
270.731201
  0
LWPOLYLINE
  5
7E
100
AcDbEntity
  8
LAYER01
370
    13
390
0
  6
Continuous
 62
   213
100
AcDbPolyline
 90
        2
 70
     0
 10
1312.614258
 20
257.078491
 10
1310.533691
 20
259.159058
  0
LWPOLYLINE
  5
7F
100
AcDbEntity
  8
LAYER01
370
    13
390
0
  6
Continuous
 62
   213
100
AcDbPolyline
 90
        2
 70
     0
 10
1306.45166
 20
263.241089
 10
1303.45166
 20
266.241089
  0
LWPOLYLINE
  5
80
100
AcDbEntity
  8
LAYER01
370
    13
390
0
  6
Continuous
 62
   213
100
AcDbPolyline
 90
        2
 70
     0
 10
1310.399414
 20
254.803589
 10
1308.318359
 20
256.884155
  0
LWPOLYLINE
  5
81
100
AcDbEntity
  8
LAYER01
370
    13
390
0
  6
Continuous
 62
   213
100
AcDbPolyline
 90
        2
 70
     0
 10
1306.45166
 20
258.750977
 10
1303.45166
 20
261.750977
  0
LWPOLYLINE
  5
82
100
AcDbEntity
  8
LAYER01
370
    13
390
0
  6
Continuous
 62
   213
100
AcDbPolyline
 90
        2
 70
     0
 10
1307.309082
 20
253.403442
 10
1303.455566
 20
257.256958
  0
LWPOLYLINE
  5
83
100
AcDbEntity
  8
LAYER01
370
    13
390
0
  6
Continuous
 62
   213
100
AcDbPolyline
 90
        2
 70
     0
 10
1485.507813
 20
322.161865
 10
1482.463867
 20
325.205688
  0
LWPOLYLINE
  5
84
100
AcDbEntity
  8
LAYER01
370
    13
390
0
  6
Continuous
 62
   213
100
AcDbPolyline
 90
        2
 70
     0
 10
1490.063965
 20
322.095947
 10
1487.02002
 20
325.139648
  0
LWPOLYLINE
  5
85
100
AcDbEntity
  8
LAYER01
370
    13
390
0
  6
Continuous
 62
   213
100
AcDbPolyline
 90
        2
 70
     0
 10
1494.620117
 20
322.029907
 10
1491.576172
 20
325.07373
  0
LWPOLYLINE
  5
86
100
AcDbEntity
  8
LAYER01
370
    13
390
0
  6
Continuous
 62
   213
100
AcDbPolyline
 90
        2
 70
     0
 10
1499.17627
 20
321.963989
 10
1496.132324
 20
325.00769
  0
LWPOLYLINE
  5
87
100
AcDbEntity
  8
LAYER01
370
    13
390
0
  6
Continuous
 62
   213
100
AcDbPolyline
 90
        2
 70
     0
 10
1503.731934
 20
321.898071
 10
1500.688477
 20
324.941772
  0
LWPOLYLINE
  5
88
100
AcDbEntity
  8
LAYER01
370
    13
390
0
  6
Continuous
 62
   213
100
AcDbPolyline
 90
        2
 70
     0
 10
1508.288086
 20
321.832031
 10
1505.244629
 20
324.875854
  0
LWPOLYLINE
  5
89
100
AcDbEntity
  8
LAYER01
370
    13
390
0
  6
Continuous
 62
   213
100
AcDbPolyline
 90
        2
 70
     0
 10
1512.844238
 20
321.766113
 10
1509.800781
 20
324.809814
  0
LWPOLYLINE
  5
8A
100
AcDbEntity
  8
LAYER01
370
    13
390
0
  6
Continuous
 62
   213
100
AcDbPolyline
 90
        2
 70
     0
 10
1517.400391
 20
321.700073
 10
1514.356445
 20
324.743896
  0
LWPOLYLINE
  5
8B
100
AcDbEntity
  8
LAYER01
370
    13
390
0
  6
Continuous
 62
   213
100
AcDbPolyline
 90
        2
 70
     0
 10
1521.956543
 20
321.634155
 10
1518.912598
 20
324.677979
  0
LWPOLYLINE
  5
8C
100
AcDbEntity
  8
LAYER01
370
    13
390
0
  6
Continuous
 62
   213
100
AcDbPolyline
 90
        2
 70
     0
 10
1526.512695
 20
321.568237
 10
1523.46875
 20
324.611938
  0
LWPOLYLINE
  5
8D
100
AcDbEntity
  8
LAYER01
370
    13
390
0
  6
Continuous
 62
   213
100
AcDbPolyline
 90
        2
 70
     0
 10
1531.068848
 20
321.502197
 10
1528.024902
 20
324.546021
  0
LWPOLYLINE
  5
8E
100
AcDbEntity
  8
LAYER01
370
    13
390
0
  6
Continuous
 62
   213
100
AcDbPolyline
 90
        2
 70
     0
 10
1535.625
 20
321.436279
 10
1532.581055
 20
324.47998
  0
LWPOLYLINE
  5
8F
100
AcDbEntity
  8
LAYER01
370
    13
390
0
  6
Continuous
 62
   213
100
AcDbPolyline
 90
        2
 70
     0
 10
1540.180664
 20
321.370361
 10
1537.137207
 20
324.414063
  0
LWPOLYLINE
  5
90
100
AcDbEntity
  8
LAYER01
370
    13
390
0
  6
Continuous
 62
   213
100
AcDbPolyline
 90
        2
 70
     0
 10
1544.736816
 20
321.304321
 10
1541.693359
 20
324.348145
  0
LWPOLYLINE
  5
91
100
AcDbEntity
  8
LAYER01
370
    13
390
0
  6
Continuous
 62
   213
100
AcDbPolyline
 90
        2
 70
     0
 10
1549.292969
 20
321.238403
 10
1546.249512
 20
324.282104
  0
LWPOLYLINE
  5
92
100
AcDbEntity
  8
LAYER01
370
    13
390
0
  6
Continuous
 62
   213
100
AcDbPolyline
 90
        2
 70
     0
 10
1553.849121
 20
321.172363
 10
1550.805664
 20
324.216187
  0
LWPOLYLINE
  5
93
100
AcDbEntity
  8
LAYER01
370
    13
390
0
  6
Continuous
 62
   213
100
AcDbPolyline
 90
        2
 70
     0
 10
1558.405273
 20
321.106445
 10
1555.361328
 20
324.150146
  0
LWPOLYLINE
  5
94
100
AcDbEntity
  8
LAYER01
370
    13
390
0
  6
Continuous
 62
   213
100
AcDbPolyline
 90
        2
 70
     0
 10
1562.961426
 20
321.040527
 10
1559.91748
 20
324.084229
  0
LWPOLYLINE
  5
95
100
AcDbEntity
  8
LAYER01
370
    13
390
0
  6
Continuous
 62
   213
100
AcDbPolyline
 90
        2
 70
     0
 10
1567.517578
 20
320.974487
 10
1564.473633
 20
324.018311
  0
LWPOLYLINE
  5
96
100
AcDbEntity
  8
LAYER01
370
    13
390
0
  6
Continuous
 62
   213
100
AcDbPolyline
 90
        2
 70
     0
 10
1572.07373
 20
320.908569
 10
1569.029785
 20
323.952271
  0
LWPOLYLINE
  5
97
100
AcDbEntity
  8
LAYER01
370
    13
390
0
  6
Continuous
 62
   213
100
AcDbPolyline
 90
        2
 70
     0
 10
1576.629883
 20
320.842529
 10
1573.585938
 20
323.886353
  0
LWPOLYLINE
  5
98
100
AcDbEntity
  8
LAYER01
370
    13
390
0
  6
Continuous
 62
   213
100
AcDbPolyline
 90
        2
 70
     0
 10
1581.185547
 20
320.776611
 10
1578.14209
 20
323.820313
  0
LWPOLYLINE
  5
99
100
AcDbEntity
  8
LAYER01
370
    13
390
0
  6
Continuous
 62
   213
100
AcDbPolyline
 90
        2
 70
     0
 10
1585.741699
 20
320.710693
 10
1582.698242
 20
323.754395
  0
LWPOLYLINE
  5
9A
100
AcDbEntity
  8
LAYER01
370
    13
390
0
  6
Continuous
 62
   213
100
AcDbPolyline
 90
        2
 70
     0
 10
1590.297852
 20
320.644653
 10
1587.254395
 20
323.688477
  0
LWPOLYLINE
  5
9B
100
AcDbEntity
  8
LAYER01
370
    13
390
0
  6
Continuous
 62
   213
100
AcDbPolyline
 90
        2
 70
     0
 10
1594.854004
 20
320.578735
 10
1591.810059
 20
323.622437
  0
LWPOLYLINE
  5
9C
100
AcDbEntity
  8
LAYER01
370
    13
390
0
  6
Continuous
 62
   213
100
AcDbPolyline
 90
        2
 70
     0
 10
1599.410156
 20
320.512695
 10
1596.366211
 20
323.556519
  0
LWPOLYLINE
  5
9D
100
AcDbEntity
  8
LAYER01
370
    13
390
0
  6
Continuous
 62
   213
100
AcDbPolyline
 90
        2
 70
     0
 10
1603.966309
 20
320.446777
 10
1600.922363
 20
323.490601
  0
LWPOLYLINE
  5
9E
100
AcDbEntity
  8
LAYER01
370
    13
390
0
  6
Continuous
 62
   213
100
AcDbPolyline
 90
        2
 70
     0
 10
1608.522461
 20
320.380859
 10
1605.478516
 20
323.424561
  0
LWPOLYLINE
  5
9F
100
AcDbEntity
  8
LAYER01
370
    13
390
0
  6
Continuous
 62
   213
100
AcDbPolyline
 90
        2
 70
     0
 10
1613.078613
 20
320.314819
 10
1610.034668
 20
323.358643
  0
LWPOLYLINE
  5
A0
100
AcDbEntity
  8
LAYER01
370
    13
390
0
  6
Continuous
 62
   213
100
AcDbPolyline
 90
        2
 70
     0
 10
1617.634277
 20
320.248901
 10
1614.59082
 20
323.292603
  0
LWPOLYLINE
  5
A1
100
AcDbEntity
  8
LAYER01
370
    13
390
0
  6
Continuous
 62
   213
100
AcDbPolyline
 90
        2
 70
     0
 10
1622.19043
 20
320.182983
 10
1619.146973
 20
323.226685
  0
LWPOLYLINE
  5
A2
100
AcDbEntity
  8
LAYER01
370
    13
390
0
  6
Continuous
 62
   213
100
AcDbPolyline
 90
        2
 70
     0
 10
1626.746582
 20
320.116943
 10
1623.703125
 20
323.160767
  0
LWPOLYLINE
  5
A3
100
AcDbEntity
  8
LAYER01
370
    13
390
0
  6
Continuous
 62
   213
100
AcDbPolyline
 90
        2
 70
     0
 10
1631.302734
 20
320.051025
 10
1628.258789
 20
323.094727
  0
LWPOLYLINE
  5
A4
100
AcDbEntity
  8
LAYER01
370
    13
390
0
  6
Continuous
 62
   213
100
AcDbPolyline
 90
        3
 70
     0
 10
1634.879395
 20
320.9646
 10
1634.670898
 20
321.173096
 10
1632.814941
 20
323.028809
  0
ENDBLK
  5
A5
100
AcDbEntity
  8
0
390
0
100
AcDbBlockEnd
  0
BLOCK
  5
1B8
100
AcDbEntity
  8
0
390
0
100
AcDbBlockBegin
  2
N7976_TV_U_89
 70
     0
 10
0.0
 20
0.0
 30
0.0
  3
N7976_TV_U_89
  1

  0
LWPOLYLINE
  5
1B9
100
AcDbEntity
  8
LAYER01
370
    35
390
0
  6
Continuous
 62
   134
100
AcDbPolyline
 90
        6
 70
     1
 10
-2.30957
 20
-3.999939
 10
-4.618652
 20
0.000061
 10
-2.30957
 20
4.000061
 10
2.30957
 20
4.000061
 10
4.618652
 20
0.000061
 10
2.30957
 20
-3.999939
  0
CIRCLE
  5
1BA
100
AcDbEntity
  8
LAYER01
370
    35
390
0
  6
Continuous
 62
   134
100
AcDbCircle
 10
0.0
 20
0.000061
 30
0.0
 40
5.0
  0
ENDBLK
  5
1BB
100
AcDbEntity
  8
0
390
0
100
AcDbBlockEnd
  0
BLOCK
  5
1BE
100
AcDbEntity
  8
0
390
0
100
AcDbBlockBegin
  2
N7976_TV_U_892
 70
     0
 10
0.0
 20
0.0
 30
0.0
  3
N7976_TV_U_892
  1

  0
LWPOLYLINE
  5
1BF
100
AcDbEntity
  8
LAYER01
370
    35
390
0
  6
Continuous
 62
   134
100
AcDbPolyline
 90
        6
 70
     1
 10
-2.30957
 20
-3.999939
 10
-4.618652
 20
0.000061
 10
-2.30957
 20
4.000061
 10
2.30957
 20
4.000061
 10
4.618652
 20
0.000061
 10
2.30957
 20
-3.999939
  0
CIRCLE
  5
1C0
100
AcDbEntity
  8
LAYER01
370
    35
390
0
  6
Continuous
 62
   134
100
AcDbCircle
 10
0.0
 20
0.000061
 30
0.0
 40
5.0
  0
ENDBLK
  5
1C1
100
AcDbEntity
  8
0
390
0
100
AcDbBlockEnd
  0
BLOCK
  5
1C6
100
AcDbEntity
  8
0
390
0
100
AcDbBlockBegin
  2
1_115_FV_U_89
 70
     0
 10
0.0
 20
0.0
 30
0.0
  3
1_115_FV_U_89
  1

  0
LWPOLYLINE
  5
1C7
100
AcDbEntity
  8
LAYER01
370
    35
390
0
  6
Continuous
 62
   134
100
AcDbPolyline
 90
        2
 70
     0
 10
0.0
 20
45.000061
 10
65.0
 20
45.000061
  0
LWPOLYLINE
  5
1C8
100
AcDbEntity
  8
LAYER01
370
    35
390
0
  6
Continuous
 62
   134
100
AcDbPolyline
 90
        2
 70
     0
 10
65.0
 20
45.000061
 10
115.0
 20
45.000061
  0
LWPOLYLINE
  5
1C9
100
AcDbEntity
  8
LAYER01
370
    35
390
0
  6
Continuous
 62
   134
100
AcDbPolyline
 90
        2
 70
     0
 10
115.0
 20
45.000061
 10
115.0
 20
5.000061
  0
LWPOLYLINE
  5
1CA
100
AcDbEntity
  8
LAYER01
370
    25
390
0
  6
Continuous
 62
    92
100
AcDbPolyline
 90
        2
 70
     0
 10
95.0
 20
45.000061
 10
95.0
 20
5.000061
  0
LWPOLYLINE
  5
1CB
100
AcDbEntity
  8
LAYER01
370
    35
390
0
  6
Continuous
 62
   134
100
AcDbPolyline
 90
        2
 70
     0
 10
115.0
 20
-4.999939
 10
115.0
 20
-44.999939
  0
LWPOLYLINE
  5
1CC
100
AcDbEntity
  8
LAYER01
370
    25
390
0
  6
Continuous
 62
    92
100
AcDbPolyline
 90
        2
 70
     0
 10
95.0
 20
-4.999939
 10
95.0
 20
-44.999939
  0
LWPOLYLINE
  5
1CD
100
AcDbEntity
  8
LAYER01
370
    35
390
0
  6
Continuous
 62
   134
100
AcDbPolyline
 90
        2
 70
     0
 10
115.0
 20
-44.999939
 10
65.0
 20
-44.999939
  0
LWPOLYLINE
  5
1CE
100
AcDbEntity
  8
LAYER01
370
    35
390
0
  6
Continuous
 62
   134
100
AcDbPolyline
 90
        2
 70
     0
 10
65.0
 20
-44.999939
 10
0.0
 20
-44.999939
  0
LWPOLYLINE
  5
1CF
100
AcDbEntity
  8
LAYER01
370
    35
390
0
  6
Continuous
 62
   134
100
AcDbPolyline
 90
        2
 70
     0
 10
0.0
 20
-44.999939
 10
0.0
 20
-5.499939
  0
LWPOLYLINE
  5
1D0
100
AcDbEntity
  8
LAYER01
370
    35
390
0
  6
Continuous
 62
   134
100
AcDbPolyline
 90
        2
 70
     0
 10
0.0
 20
-5.499939
 10
0.0
 20
5.500061
  0
LWPOLYLINE
  5
1D1
100
AcDbEntity
  8
LAYER01
370
    35
390
0
  6
Continuous
 62
   134
100
AcDbPolyline
 90
        2
 70
     0
 10
0.0
 20
5.500061
 10
0.0
 20
45.000061
  0
LWPOLYLINE
  5
1D2
100
AcDbEntity
  8
LAYER01
370
    35
390
0
  6
Continuous
 62
   134
100
AcDbPolyline
 90
        2
 70
     0
 10
4.0
 20
-44.999939
 10
4.0
 20
-5.499939
  0
LWPOLYLINE
  5
1D3
100
AcDbEntity
  8
LAYER01
370
    35
390
0
  6
Continuous
 62
   134
100
AcDbPolyline
 90
        2
 70
     0
 10
4.0
 20
-5.499939
 10
4.0
 20
5.500061
  0
LWPOLYLINE
  5
1D4
100
AcDbEntity
  8
LAYER01
370
    35
390
0
  6
Continuous
 62
   134
100
AcDbPolyline
 90
        2
 70
     0
 10
4.0
 20
5.500061
 10
4.0
 20
45.000061
  0
LWPOLYLINE
  5
1D5
100
AcDbEntity
  8
LAYER01
370
    35
390
0
  6
Continuous
 62
   134
100
AcDbPolyline
 90
        2
 70
     0
 10
2.0
 20
-44.999939
 10
2.0
 20
-5.499939
  0
LWPOLYLINE
  5
1D6
100
AcDbEntity
  8
LAYER01
370
    35
390
0
  6
Continuous
 62
   134
100
AcDbPolyline
 90
        2
 70
     0
 10
2.0
 20
-5.499939
 10
2.0
 20
5.500061
  0
LWPOLYLINE
  5
1D7
100
AcDbEntity
  8
LAYER01
370
    35
390
0
  6
Continuous
 62
   134
100
AcDbPolyline
 90
        2
 70
     0
 10
2.0
 20
5.500061
 10
2.0
 20
45.000061
  0
LWPOLYLINE
  5
1D8
100
AcDbEntity
  8
LAYER01
370
    25
390
0
  6
DASHDOT
 62
    92
100
AcDbPolyline
 90
        2
 70
     0
 10
115.0
 20
0.000061
 10
-1.0
 20
0.000061
  0
LWPOLYLINE
  5
1D9
100
AcDbEntity
  8
LAYER01
370
    35
390
0
  6
Continuous
 62
   134
100
AcDbPolyline
 90
        2
 70
     0
 10
115.0
 20
-4.999939
 10
113.629883
 20
-4.999939
  0
LWPOLYLINE
  5
1DA
100
AcDbEntity
  8
LAYER01
370
    35
390
0
  6
Continuous
 62
   134
100
AcDbPolyline
 90
        2
 70
     0
 10
113.629883
 20
-4.999939
 10
52.14209
 20
-4.999939
  0
CIRCLE
  5
1DB
100
AcDbEntity
  8
LAYER01
370
    35
390
0
  6
Continuous
 62
   134
100
AcDbCircle
 10
105.0
 20
35.000061
 30
0.0
 40
2.549805
  0
CIRCLE
  5
1DC
100
AcDbEntity
  8
LAYER01
370
    35
390
0
  6
Continuous
 62
   134
100
AcDbCircle
 10
105.0
 20
-34.999939
 30
0.0
 40
2.549805
  0
LWPOLYLINE
  5
1DD
100
AcDbEntity
  8
LAYER01
370
    35
390
0
  6
Continuous
 62
   134
100
AcDbPolyline
 90
        2
 70
     0
 10
115.0
 20
5.000061
 10
113.629883
 20
5.000061
  0
LWPOLYLINE
  5
1DE
100
AcDbEntity
  8
LAYER01
370
    35
390
0
  6
Continuous
 62
   134
100
AcDbPolyline
 90
        2
 70
     0
 10
113.629883
 20
5.000061
 10
52.14209
 20
5.000061
  0
LWPOLYLINE
  5
1DF
100
AcDbEntity
  8
LAYER01
370
    35
390
0
  6
Continuous
 62
   134
100
AcDbPolyline
 90
        2
 70
     0
 10
102.5
 20
12.500061
 10
102.5
 20
25.500061
  0
LWPOLYLINE
  5
1E0
100
AcDbEntity
  8
LAYER01
370
    13
390
0
  6
Continuous
 62
   213
100
AcDbPolyline
 90
        2
 70
     0
 10
102.5
 20
12.500061
 42
1.0
 10
107.5
 20
12.500061
  0
LWPOLYLINE
  5
1E1
100
AcDbEntity
  8
LAYER01
370
    35
390
0
  6
Continuous
 62
   134
100
AcDbPolyline
 90
        2
 70
     0
 10
107.5
 20
12.500061
 10
107.5
 20
25.500061
  0
LWPOLYLINE
  5
1E2
100
AcDbEntity
  8
LAYER01
370
    13
390
0
  6
Continuous
 62
   213
100
AcDbPolyline
 90
        2
 70
     0
 10
107.5
 20
25.500061
 42
1.0
 10
102.5
 20
25.500061
  0
LWPOLYLINE
  5
1E3
100
AcDbEntity
  8
LAYER01
370
    35
390
0
  6
Continuous
 62
   134
100
AcDbPolyline
 90
        2
 70
     0
 10
113.629883
 20
-4.999939
 10
113.629883
 20
5.000061
  0
LWPOLYLINE
  5
1E4
100
AcDbEntity
  8
LAYER01
370
    25
390
0
  6
Continuous
 62
    92
100
AcDbPolyline
 90
        2
 70
     0
 10
103.715332
 20
-4.999939
 10
103.715332
 20
5.000061
  0
LWPOLYLINE
  5
1E5
100
AcDbEntity
  8
LAYER01
370
    25
390
0
  6
Continuous
 62
    92
100
AcDbPolyline
 90
        2
 70
     0
 10
56.291992
 20
-4.999939
 10
56.291992
 20
5.000061
  0
LWPOLYLINE
  5
1E6
100
AcDbEntity
  8
LAYER01
370
    35
390
0
  6
Continuous
 62
   134
100
AcDbPolyline
 90
        2
 70
     0
 10
52.14209
 20
-3.813538
 10
52.14209
 20
3.81366
  0
LWPOLYLINE
  5
1E7
100
AcDbEntity
  8
LAYER01
370
    35
390
0
  6
Continuous
 62
   134
100
AcDbPolyline
 90
        2
 70
     0
 10
102.5
 20
-12.499939
 10
102.5
 20
-25.499939
  0
LWPOLYLINE
  5
1E8
100
AcDbEntity
  8
LAYER01
370
    13
390
0
  6
Continuous
 62
   213
100
AcDbPolyline
 90
        2
 70
     0
 10
107.5
 20
-12.499939
 42
1.0
 10
102.5
 20
-12.499939
  0
LWPOLYLINE
  5
1E9
100
AcDbEntity
  8
LAYER01
370
    35
390
0
  6
Continuous
 62
   134
100
AcDbPolyline
 90
        2
 70
     0
 10
107.5
 20
-12.499939
 10
107.5
 20
-25.499939
  0
LWPOLYLINE
  5
1EA
100
AcDbEntity
  8
LAYER01
370
    13
390
0
  6
Continuous
 62
   213
100
AcDbPolyline
 90
        2
 70
     0
 10
102.5
 20
-25.499939
 42
1.0
 10
107.5
 20
-25.499939
  0
LWPOLYLINE
  5
1EB
100
AcDbEntity
  8
LAYER01
370
    18
390
0
  6
DASHED
 62
     7
100
AcDbPolyline
 90
        2
 70
     0
 10
0.0
 20
5.500061
 10
4.0
 20
5.500061
  0
LWPOLYLINE
  5
1EC
100
AcDbEntity
  8
LAYER01
370
    18
390
0
  6
DASHED
 62
     7
100
AcDbPolyline
 90
        2
 70
     0
 10
0.0
 20
-5.499939
 10
4.0
 20
-5.499939
  0
INSERT
  5
20A
100
AcDbEntity
  8
LAYER01
390
0
100
AcDbBlockReference
  2
HATCH--I_U_89
 10
0.0
 20
0.0
 30
0.0
  0
LWPOLYLINE
  5
20B
100
AcDbEntity
  8
LAYER01
370
    35
390
0
  6
Continuous
 62
   134
100
AcDbPolyline
 90
        4
 70
     1
 10
89.341797
 20
-36.631775
 10
89.341797
 20
-31.131775
 10
83.841797
 20
-31.131775
 10
83.841797
 20
-36.631775
  0
LWPOLYLINE
  5
20C
102
{ACAD_REACTORS
330
20D
102
}
100
AcDbEntity
  8
HATCH_REACTORS
390
0
100
AcDbPolyline
 90
        4
 70
     1
 10
85.041992
 20
-34.98175
 10
84.741699
 20
-35.281799
 10
84.741699
 20
-31.131775
 10
85.041992
 20
-31.131775
  0
HATCH
  5
20D
100
AcDbEntity
  8
LAYER01
370
     5
390
0
  6
Continuous
 62
     7
100
AcDbHatch
 10
0.0
 20
0.0
 30
0.0
210
0.0
220
0.0
230
1.0
  2
_L-O---1
 70
     1
 71
     1
 91
        1
 92
        2
 72
     0
 73
     1
 93
        4
 10
85.041992187500099
 20
-34.9817504882812
 10
84.741699218750099
 20
-35.2817993164062
 10
84.741699218750099
 20
-31.131774902343704
 10
85.041992187500099
 20
-31.131774902343704
 97
        1
330
20C
 75
     0
 76
     0
 98
        0
  0
LWPOLYLINE
  5
20E
102
{ACAD_REACTORS
330
20F
102
}
100
AcDbEntity
  8
HATCH_REACTORS
390
0
100
AcDbPolyline
 90
        4
 70
     1
 10
85.39209
 20
-34.98175
 10
85.691895
 20
-35.281799
 10
84.741699
 20
-35.281799
 10
85.041992
 20
-34.98175
  0
HATCH
  5
20F
100
AcDbEntity
  8
LAYER01
370
     5
390
0
  6
Continuous
 62
     7
100
AcDbHatch
 10
0.0
 20
0.0
 30
0.0
210
0.0
220
0.0
230
1.0
  2
_L-O---1
 70
     1
 71
     1
 91
        1
 92
        2
 72
     0
 73
     1
 93
        4
 10
85.392089843750099
 20
-34.9817504882812
 10
85.691894531250099
 20
-35.2817993164062
 10
84.741699218750099
 20
-35.2817993164062
 10
85.041992187500099
 20
-34.9817504882812
 97
        1
330
20E
 75
     0
 76
     0
 98
        0
  0
LWPOLYLINE
  5
210
102
{ACAD_REACTORS
330
211
102
}
100
AcDbEntity
  8
HATCH_REACTORS
390
0
100
AcDbPolyline
 90
        4
 70
     1
 10
85.39209
 20
-31.131775
 10
85.691895
 20
-31.131775
 10
85.691895
 20
-35.281799
 10
85.39209
 20
-34.98175
  0
HATCH
  5
211
100
AcDbEntity
  8
LAYER01
370
     5
390
0
  6
Continuous
 62
     7
100
AcDbHatch
 10
0.0
 20
0.0
 30
0.0
210
0.0
220
0.0
230
1.0
  2
_L-O---1
 70
     1
 71
     1
 91
        1
 92
        2
 72
     0
 73
     1
 93
        4
 10
85.392089843750099
 20
-31.131774902343704
 10
85.691894531250099
 20
-31.131774902343704
 10
85.691894531250099
 20
-35.2817993164062
 10
85.392089843750099
 20
-34.9817504882812
 97
        1
330
210
 75
     0
 76
     0
 98
        0
  0
LWPOLYLINE
  5
212
102
{ACAD_REACTORS
330
213
102
}
100
AcDbEntity
  8
HATCH_REACTORS
390
0
100
AcDbPolyline
 90
        4
 70
     1
 10
86.041992
 20
-35.48175
 10
86.341797
 20
-35.781799
 10
83.841797
 20
-35.781799
 10
83.841797
 20
-35.48175
  0
HATCH
  5
213
100
AcDbEntity
  8
LAYER01
370
     5
390
0
  6
Continuous
 62
     7
100
AcDbHatch
 10
0.0
 20
0.0
 30
0.0
210
0.0
220
0.0
230
1.0
  2
_L-O---1
 70
     1
 71
     1
 91
        1
 92
        2
 72
     0
 73
     1
 93
        4
 10
86.041992187500099
 20
-35.4817504882812
 10
86.341796875000099
 20
-35.7817993164062
 10
83.841796875000099
 20
-35.7817993164062
 10
83.841796875000099
 20
-35.4817504882812
 97
        1
330
212
 75
     0
 76
     0
 98
        0
  0
LWPOLYLINE
  5
214
102
{ACAD_REACTORS
330
215
102
}
100
AcDbEntity
  8
HATCH_REACTORS
390
0
100
AcDbPolyline
 90
        4
 70
     1
 10
86.041992
 20
-31.131775
 10
86.341797
 20
-31.131775
 10
86.341797
 20
-35.781799
 10
86.041992
 20
-35.48175
  0
HATCH
  5
215
100
AcDbEntity
  8
LAYER01
370
     5
390
0
  6
Continuous
 62
     7
100
AcDbHatch
 10
0.0
 20
0.0
 30
0.0
210
0.0
220
0.0
230
1.0
  2
_L-O---1
 70
     1
 71
     1
 91
        1
 92
        2
 72
     0
 73
     1
 93
        4
 10
86.041992187500099
 20
-31.131774902343704
 10
86.341796875000099
 20
-31.131774902343704
 10
86.341796875000099
 20
-35.7817993164062
 10
86.041992187500099
 20
-35.4817504882812
 97
        1
330
214
 75
     0
 76
     0
 98
        0
  0
LWPOLYLINE
  5
216
102
{ACAD_REACTORS
330
217
102
}
100
AcDbEntity
  8
HATCH_REACTORS
390
0
100
AcDbPolyline
 90
        4
 70
     1
 10
88.14209
 20
-32.781799
 10
88.441895
 20
-32.48175
 10
88.441895
 20
-36.631775
 10
88.14209
 20
-36.631775
  0
HATCH
  5
217
100
AcDbEntity
  8
LAYER01
370
     5
390
0
  6
Continuous
 62
     7
100
AcDbHatch
 10
0.0
 20
0.0
 30
0.0
210
0.0
220
0.0
230
1.0
  2
_L-O---1
 70
     1
 71
     1
 91
        1
 92
        2
 72
     0
 73
     1
 93
        4
 10
88.142089843750099
 20
-32.7817993164062
 10
88.441894531250099
 20
-32.4817504882812
 10
88.441894531250099
 20
-36.6317749023437
 10
88.142089843750099
 20
-36.6317749023437
 97
        1
330
216
 75
     0
 76
     0
 98
        0
  0
LWPOLYLINE
  5
218
102
{ACAD_REACTORS
330
219
102
}
100
AcDbEntity
  8
HATCH_REACTORS
390
0
100
AcDbPolyline
 90
        4
 70
     1
 10
87.791992
 20
-32.781799
 10
87.491699
 20
-32.48175
 10
88.441895
 20
-32.48175
 10
88.14209
 20
-32.781799
  0
HATCH
  5
219
100
AcDbEntity
  8
LAYER01
370
     5
390
0
  6
Continuous
 62
     7
100
AcDbHatch
 10
0.0
 20
0.0
 30
0.0
210
0.0
220
0.0
230
1.0
  2
_L-O---1
 70
     1
 71
     1
 91
        1
 92
        2
 72
     0
 73
     1
 93
        4
 10
87.791992187500099
 20
-32.7817993164062
 10
87.491699218750099
 20
-32.4817504882812
 10
88.441894531250099
 20
-32.4817504882812
 10
88.142089843750099
 20
-32.7817993164062
 97
        1
330
218
 75
     0
 76
     0
 98
        0
  0
LWPOLYLINE
  5
21A
102
{ACAD_REACTORS
330
21B
102
}
100
AcDbEntity
  8
HATCH_REACTORS
390
0
100
AcDbPolyline
 90
        4
 70
     1
 10
87.791992
 20
-36.631775
 10
87.491699
 20
-36.631775
 10
87.491699
 20
-32.48175
 10
87.791992
 20
-32.781799
  0
HATCH
  5
21B
100
AcDbEntity
  8
LAYER01
370
     5
390
0
  6
Continuous
 62
     7
100
AcDbHatch
 10
0.0
 20
0.0
 30
0.0
210
0.0
220
0.0
230
1.0
  2
_L-O---1
 70
     1
 71
     1
 91
        1
 92
        2
 72
     0
 73
     1
 93
        4
 10
87.791992187500099
 20
-36.6317749023437
 10
87.491699218750099
 20
-36.6317749023437
 10
87.491699218750099
 20
-32.4817504882812
 10
87.791992187500099
 20
-32.7817993164062
 97
        1
330
21A
 75
     0
 76
     0
 98
        0
  0
LWPOLYLINE
  5
21C
102
{ACAD_REACTORS
330
21D
102
}
100
AcDbEntity
  8
HATCH_REACTORS
390
0
100
AcDbPolyline
 90
        4
 70
     1
 10
87.14209
 20
-32.281799
 10
86.841797
 20
-31.98175
 10
89.341797
 20
-31.98175
 10
89.341797
 20
-32.281799
  0
HATCH
  5
21D
100
AcDbEntity
  8
LAYER01
370
     5
390
0
  6
Continuous
 62
     7
100
AcDbHatch
 10
0.0
 20
0.0
 30
0.0
210
0.0
220
0.0
230
1.0
  2
_L-O---1
 70
     1
 71
     1
 91
        1
 92
        2
 72
     0
 73
     1
 93
        4
 10
87.142089843750099
 20
-32.2817993164062
 10
86.841796875000099
 20
-31.981750488281204
 10
89.341796875000099
 20
-31.981750488281204
 10
89.341796875000099
 20
-32.2817993164062
 97
        1
330
21C
 75
     0
 76
     0
 98
        0
  0
LWPOLYLINE
  5
21E
102
{ACAD_REACTORS
330
21F
102
}
100
AcDbEntity
  8
HATCH_REACTORS
390
0
100
AcDbPolyline
 90
        4
 70
     1
 10
87.14209
 20
-36.631775
 10
86.841797
 20
-36.631775
 10
86.841797
 20
-31.98175
 10
87.14209
 20
-32.281799
  0
HATCH
  5
21F
100
AcDbEntity
  8
LAYER01
370
     5
390
0
  6
Continuous
 62
     7
100
AcDbHatch
 10
0.0
 20
0.0
 30
0.0
210
0.0
220
0.0
230
1.0
  2
_L-O---1
 70
     1
 71
     1
 91
        1
 92
        2
 72
     0
 73
     1
 93
        4
 10
87.142089843750099
 20
-36.6317749023437
 10
86.841796875000099
 20
-36.6317749023437
 10
86.841796875000099
 20
-31.981750488281204
 10
87.142089843750099
 20
-32.2817993164062
 97
        1
330
21E
 75
     0
 76
     0
 98
        0
  0
LWPOLYLINE
  5
220
100
AcDbEntity
  8
LAYER01
370
    25
390
0
  6
Continuous
 62
    92
100
AcDbPolyline
 90
        2
 70
     0
 10
60.0
 20
-44.999939
 10
60.0
 20
-4.999939
  0
LWPOLYLINE
  5
221
100
AcDbEntity
  8
LAYER01
370
    25
390
0
  6
Continuous
 62
    92
100
AcDbPolyline
 90
        2
 70
     0
 10
60.0
 20
5.000061
 10
60.0
 20
45.000061
  0
ENDBLK
  5
222
100
AcDbEntity
  8
0
390
0
100
AcDbBlockEnd
  0
BLOCK
  5
1EE
100
AcDbEntity
  8
0
390
0
100
AcDbBlockBegin
  2
HATCH--I_U_89
 70
     0
 10
0.0
 20
0.0
 30
0.0
  3
HATCH--I_U_89
  1

  0
LWPOLYLINE
  5
1EF
102
{ACAD_REACTORS
330
1F0
102
}
100
AcDbEntity
  8
HATCH_REACTORS
390
0
100
AcDbPolyline
 90
        4
 70
     1
 10
83.841797
 20
-35.631775
 10
83.841797
 20
-31.131775
 10
84.89209
 20
-31.131775
 10
84.89209
 20
-35.631775
  0
HATCH
  5
1F0
100
AcDbEntity
  8
LAYER01
370
     5
390
0
  6
Continuous
 62
     7
100
AcDbHatch
 10
0.0
 20
0.0
 30
0.0
210
0.0
220
0.0
230
1.0
  2
_L-O---1
 70
     1
 71
     1
 91
        1
 92
        2
 72
     0
 73
     1
 93
        4
 10
83.841796875000099
 20
-35.631774902343587
 10
83.841796875000099
 20
-31.13177490234359
 10
84.892089843750099
 20
-31.13177490234359
 10
84.892089843750099
 20
-35.631774902343587
 97
        1
330
1EF
 75
     0
 76
     0
 98
        0
  0
LWPOLYLINE
  5
1F1
102
{ACAD_REACTORS
330
1F2
102
}
100
AcDbEntity
  8
HATCH_REACTORS
390
0
100
AcDbPolyline
 90
        4
 70
     1
 10
83.841797
 20
-36.631775
 10
83.841797
 20
-35.631775
 10
84.89209
 20
-35.631775
 10
84.89209
 20
-36.631775
  0
HATCH
  5
1F2
100
AcDbEntity
  8
LAYER01
370
     5
390
0
  6
Continuous
 62
     7
100
AcDbHatch
 10
0.0
 20
0.0
 30
0.0
210
0.0
220
0.0
230
1.0
  2
_L-O---1
 70
     1
 71
     1
 91
        1
 92
        2
 72
     0
 73
     1
 93
        4
 10
83.841796875000099
 20
-36.631774902343587
 10
83.841796875000099
 20
-35.631774902343587
 10
84.892089843750099
 20
-35.631774902343587
 10
84.892089843750099
 20
-36.631774902343587
 97
        1
330
1F1
 75
     0
 76
     0
 98
        0
  0
LWPOLYLINE
  5
1F3
102
{ACAD_REACTORS
330
1F4
102
}
100
AcDbEntity
  8
HATCH_REACTORS
390
0
100
AcDbPolyline
 90
        4
 70
     1
 10
84.89209
 20
-35.631775
 10
84.89209
 20
-35.131775
 10
85.541992
 20
-35.131775
 10
85.541992
 20
-35.631775
  0
HATCH
  5
1F4
100
AcDbEntity
  8
LAYER01
370
     5
390
0
  6
Continuous
 62
     7
100
AcDbHatch
 10
0.0
 20
0.0
 30
0.0
210
0.0
220
0.0
230
1.0
  2
_L-O---1
 70
     1
 71
     1
 91
        1
 92
        2
 72
     0
 73
     1
 93
        4
 10
84.892089843750099
 20
-35.631774902343587
 10
84.892089843750099
 20
-35.131774902343587
 10
85.541992187500099
 20
-35.131774902343587
 10
85.541992187500099
 20
-35.631774902343587
 97
        1
330
1F3
 75
     0
 76
     0
 98
        0
  0
LWPOLYLINE
  5
1F5
102
{ACAD_REACTORS
330
1F6
102
}
100
AcDbEntity
  8
HATCH_REACTORS
390
0
100
AcDbPolyline
 90
        4
 70
     1
 10
84.89209
 20
-36.631775
 10
84.89209
 20
-35.631775
 10
85.541992
 20
-35.631775
 10
85.541992
 20
-36.631775
  0
HATCH
  5
1F6
100
AcDbEntity
  8
LAYER01
370
     5
390
0
  6
Continuous
 62
     7
100
AcDbHatch
 10
0.0
 20
0.0
 30
0.0
210
0.0
220
0.0
230
1.0
  2
_L-O---1
 70
     1
 71
     1
 91
        1
 92
        2
 72
     0
 73
     1
 93
        4
 10
84.892089843750099
 20
-36.631774902343587
 10
84.892089843750099
 20
-35.631774902343587
 10
85.541992187500099
 20
-35.631774902343587
 10
85.541992187500099
 20
-36.631774902343587
 97
        1
330
1F5
 75
     0
 76
     0
 98
        0
  0
LWPOLYLINE
  5
1F7
102
{ACAD_REACTORS
330
1F8
102
}
100
AcDbEntity
  8
HATCH_REACTORS
390
0
100
AcDbPolyline
 90
        4
 70
     1
 10
85.541992
 20
-35.631775
 10
85.541992
 20
-31.131775
 10
86.191895
 20
-31.131775
 10
86.191895
 20
-35.631775
  0
HATCH
  5
1F8
100
AcDbEntity
  8
LAYER01
370
     5
390
0
  6
Continuous
 62
     7
100
AcDbHatch
 10
0.0
 20
0.0
 30
0.0
210
0.0
220
0.0
230
1.0
  2
_L-O---1
 70
     1
 71
     1
 91
        1
 92
        2
 72
     0
 73
     1
 93
        4
 10
85.541992187500099
 20
-35.631774902343587
 10
85.541992187500099
 20
-31.13177490234359
 10
86.191894531250099
 20
-31.13177490234359
 10
86.191894531250099
 20
-35.631774902343587
 97
        1
330
1F7
 75
     0
 76
     0
 98
        0
  0
LWPOLYLINE
  5
1F9
102
{ACAD_REACTORS
330
1FA
102
}
100
AcDbEntity
  8
HATCH_REACTORS
390
0
100
AcDbPolyline
 90
        4
 70
     1
 10
85.541992
 20
-36.631775
 10
85.541992
 20
-35.631775
 10
86.191895
 20
-35.631775
 10
86.191895
 20
-36.631775
  0
HATCH
  5
1FA
100
AcDbEntity
  8
LAYER01
370
     5
390
0
  6
Continuous
 62
     7
100
AcDbHatch
 10
0.0
 20
0.0
 30
0.0
210
0.0
220
0.0
230
1.0
  2
_L-O---1
 70
     1
 71
     1
 91
        1
 92
        2
 72
     0
 73
     1
 93
        4
 10
85.541992187500099
 20
-36.631774902343587
 10
85.541992187500099
 20
-35.631774902343587
 10
86.191894531250099
 20
-35.631774902343587
 10
86.191894531250099
 20
-36.631774902343587
 97
        1
330
1F9
 75
     0
 76
     0
 98
        0
  0
LWPOLYLINE
  5
1FB
102
{ACAD_REACTORS
330
1FC
102
}
100
AcDbEntity
  8
HATCH_REACTORS
390
0
100
AcDbPolyline
 90
        4
 70
     1
 10
86.191895
 20
-36.631775
 10
86.191895
 20
-31.131775
 10
86.991699
 20
-31.131775
 10
86.991699
 20
-36.631775
  0
HATCH
  5
1FC
100
AcDbEntity
  8
LAYER01
370
     5
390
0
  6
Continuous
 62
     7
100
AcDbHatch
 10
0.0
 20
0.0
 30
0.0
210
0.0
220
0.0
230
1.0
  2
_L-O---1
 70
     1
 71
     1
 91
        1
 92
        2
 72
     0
 73
     1
 93
        4
 10
86.191894531250099
 20
-36.631774902343587
 10
86.191894531250099
 20
-31.13177490234359
 10
86.991699218750099
 20
-31.13177490234359
 10
86.991699218750099
 20
-36.631774902343587
 97
        1
330
1FB
 75
     0
 76
     0
 98
        0
  0
LWPOLYLINE
  5
1FD
102
{ACAD_REACTORS
330
1FE
102
}
100
AcDbEntity
  8
HATCH_REACTORS
390
0
100
AcDbPolyline
 90
        4
 70
     1
 10
86.991699
 20
-32.131775
 10
86.991699
 20
-31.131775
 10
87.64209
 20
-31.131775
 10
87.64209
 20
-32.131775
  0
HATCH
  5
1FE
100
AcDbEntity
  8
LAYER01
370
     5
390
0
  6
Continuous
 62
     7
100
AcDbHatch
 10
0.0
 20
0.0
 30
0.0
210
0.0
220
0.0
230
1.0
  2
_L-O---1
 70
     1
 71
     1
 91
        1
 92
        2
 72
     0
 73
     1
 93
        4
 10
86.991699218750099
 20
-32.131774902343587
 10
86.991699218750099
 20
-31.13177490234359
 10
87.642089843750099
 20
-31.13177490234359
 10
87.642089843750099
 20
-32.131774902343587
 97
        1
330
1FD
 75
     0
 76
     0
 98
        0
  0
LWPOLYLINE
  5
1FF
102
{ACAD_REACTORS
330
200
102
}
100
AcDbEntity
  8
HATCH_REACTORS
390
0
100
AcDbPolyline
 90
        4
 70
     1
 10
86.991699
 20
-36.631775
 10
86.991699
 20
-32.131775
 10
87.64209
 20
-32.131775
 10
87.64209
 20
-36.631775
  0
HATCH
  5
200
100
AcDbEntity
  8
LAYER01
370
     5
390
0
  6
Continuous
 62
     7
100
AcDbHatch
 10
0.0
 20
0.0
 30
0.0
210
0.0
220
0.0
230
1.0
  2
_L-O---1
 70
     1
 71
     1
 91
        1
 92
        2
 72
     0
 73
     1
 93
        4
 10
86.991699218750099
 20
-36.631774902343587
 10
86.991699218750099
 20
-32.131774902343587
 10
87.642089843750099
 20
-32.131774902343587
 10
87.642089843750099
 20
-36.631774902343587
 97
        1
330
1FF
 75
     0
 76
     0
 98
        0
  0
LWPOLYLINE
  5
201
102
{ACAD_REACTORS
330
202
102
}
100
AcDbEntity
  8
HATCH_REACTORS
390
0
100
AcDbPolyline
 90
        4
 70
     1
 10
87.64209
 20
-32.131775
 10
87.64209
 20
-31.131775
 10
88.291992
 20
-31.131775
 10
88.291992
 20
-32.131775
  0
HATCH
  5
202
100
AcDbEntity
  8
LAYER01
370
     5
390
0
  6
Continuous
 62
     7
100
AcDbHatch
 10
0.0
 20
0.0
 30
0.0
210
0.0
220
0.0
230
1.0
  2
_L-O---1
 70
     1
 71
     1
 91
        1
 92
        2
 72
     0
 73
     1
 93
        4
 10
87.642089843750099
 20
-32.131774902343587
 10
87.642089843750099
 20
-31.13177490234359
 10
88.291992187500099
 20
-31.13177490234359
 10
88.291992187500099
 20
-32.131774902343587
 97
        1
330
201
 75
     0
 76
     0
 98
        0
  0
LWPOLYLINE
  5
203
102
{ACAD_REACTORS
330
204
102
}
100
AcDbEntity
  8
HATCH_REACTORS
390
0
100
AcDbPolyline
 90
        4
 70
     1
 10
87.64209
 20
-32.631775
 10
87.64209
 20
-32.131775
 10
88.291992
 20
-32.131775
 10
88.291992
 20
-32.631775
  0
HATCH
  5
204
100
AcDbEntity
  8
LAYER01
370
     5
390
0
  6
Continuous
 62
     7
100
AcDbHatch
 10
0.0
 20
0.0
 30
0.0
210
0.0
220
0.0
230
1.0
  2
_L-O---1
 70
     1
 71
     1
 91
        1
 92
        2
 72
     0
 73
     1
 93
        4
 10
87.642089843750099
 20
-32.631774902343587
 10
87.642089843750099
 20
-32.131774902343587
 10
88.291992187500099
 20
-32.131774902343587
 10
88.291992187500099
 20
-32.631774902343587
 97
        1
330
203
 75
     0
 76
     0
 98
        0
  0
LWPOLYLINE
  5
205
102
{ACAD_REACTORS
330
206
102
}
100
AcDbEntity
  8
HATCH_REACTORS
390
0
100
AcDbPolyline
 90
        4
 70
     1
 10
88.291992
 20
-32.131775
 10
88.291992
 20
-31.131775
 10
89.341797
 20
-31.131775
 10
89.341797
 20
-32.131775
  0
HATCH
  5
206
100
AcDbEntity
  8
LAYER01
370
     5
390
0
  6
Continuous
 62
     7
100
AcDbHatch
 10
0.0
 20
0.0
 30
0.0
210
0.0
220
0.0
230
1.0
  2
_L-O---1
 70
     1
 71
     1
 91
        1
 92
        2
 72
     0
 73
     1
 93
        4
 10
88.291992187500099
 20
-32.131774902343587
 10
88.291992187500099
 20
-31.13177490234359
 10
89.341796875000099
 20
-31.13177490234359
 10
89.341796875000099
 20
-32.131774902343587
 97
        1
330
205
 75
     0
 76
     0
 98
        0
  0
LWPOLYLINE
  5
207
102
{ACAD_REACTORS
330
208
102
}
100
AcDbEntity
  8
HATCH_REACTORS
390
0
100
AcDbPolyline
 90
        4
 70
     1
 10
88.291992
 20
-36.631775
 10
88.291992
 20
-32.131775
 10
89.341797
 20
-32.131775
 10
89.341797
 20
-36.631775
  0
HATCH
  5
208
100
AcDbEntity
  8
LAYER01
370
     5
390
0
  6
Continuous
 62
     7
100
AcDbHatch
 10
0.0
 20
0.0
 30
0.0
210
0.0
220
0.0
230
1.0
  2
_L-O---1
 70
     1
 71
     1
 91
        1
 92
        2
 72
     0
 73
     1
 93
        4
 10
88.291992187500099
 20
-36.631774902343587
 10
88.291992187500099
 20
-32.131774902343587
 10
89.341796875000099
 20
-32.131774902343587
 10
89.341796875000099
 20
-36.631774902343587
 97
        1
330
207
 75
     0
 76
     0
 98
        0
  0
ENDBLK
  5
209
100
AcDbEntity
  8
0
390
0
100
AcDbBlockEnd
  0
BLOCK
  5
225
100
AcDbEntity
  8
0
390
0
100
AcDbBlockBegin
  2
X80_F_US_U_M_89
 70
     0
 10
0.0
 20
0.0
 30
0.0
  3
X80_F_US_U_M_89
  1

  0
LWPOLYLINE
  5
226
100
AcDbEntity
  8
LAYER01
370
    35
390
0
  6
Continuous
 62
   134
100
AcDbPolyline
 90
        2
 70
     0
 10
0.0
 20
9.250061
 10
3.799805
 20
9.250061
  0
LWPOLYLINE
  5
227
100
AcDbEntity
  8
LAYER01
370
    35
390
0
  6
Continuous
 62
   134
100
AcDbPolyline
 90
        2
 70
     0
 10
2.200195
 20
9.250061
 10
2.200195
 20
-9.249939
  0
LWPOLYLINE
  5
228
100
AcDbEntity
  8
LAYER01
370
    35
390
0
  6
Continuous
 62
   134
100
AcDbPolyline
 90
        2
 70
     0
 10
2.200195
 20
-9.249939
 10
0.0
 20
-9.249939
  0
LWPOLYLINE
  5
229
100
AcDbEntity
  8
LAYER01
370
    35
390
0
  6
Continuous
 62
   134
100
AcDbPolyline
 90
        2
 70
     0
 10
3.799805
 20
9.250061
 10
3.799805
 20
-9.249939
  0
LWPOLYLINE
  5
22A
100
AcDbEntity
  8
LAYER01
370
    35
390
0
  6
Continuous
 62
   134
100
AcDbPolyline
 90
        2
 70
     0
 10
3.799805
 20
-9.249939
 10
2.200195
 20
-9.249939
  0
INSERT
  5
238
100
AcDbEntity
  8
LAYER01
390
0
100
AcDbBlockReference
  2
2--C2EV-CI_U_M_89
 10
10.599915
 20
0.0
 30
0.0
 50
180.0
  0
ENDBLK
  5
239
100
AcDbEntity
  8
0
390
0
100
AcDbBlockEnd
  0
BLOCK
  5
22C
100
AcDbEntity
  8
0
390
0
100
AcDbBlockBegin
  2
2--C2EV-CI_U_M_89
 70
     0
 10
0.0
 20
0.0
 30
0.0
  3
2--C2EV-CI_U_M_89
  1

  0
LWPOLYLINE
  5
22D
100
AcDbEntity
  8
LAYER21
370
    13
390
0
  6
Continuous
 62
   213
100
AcDbPolyline
 90
        4
 70
     1
 10
6.80011
 20
-7.508972
 10
6.80011
 20
7.50885
 10
-0.000183
 20
7.50885
 10
-0.000183
 20
-7.508972
  0
LWPOLYLINE
  5
22F
100
AcDbEntity
  8
LAYER21
370
    13
390
0
  6
Continuous
 62
   213
100
AcDbPolyline
 90
        8
 70
     1
 10
5.98761
 20
-3.754456
 10
6.190735
 20
-3.218811
 42
0.18335
 10
6.190735
 20
3.218811
 10
5.98761
 20
3.754456
 10
0.812317
 20
3.754456
 10
0.610168
 20
3.220886
 42
0.183462
 10
0.611633
 20
-3.220398
 10
0.812317
 20
-3.749573
  0
LWPOLYLINE
  5
230
100
AcDbEntity
  8
LAYER21
370
    13
390
0
  6
Continuous
 62
   213
100
AcDbPolyline
 90
        8
 70
     1
 10
5.98761
 20
3.749573
 10
6.338196
 20
4.384094
 42
0.258495
 10
6.335266
 20
6.877747
 10
5.98761
 20
7.503967
 10
0.812317
 20
7.503967
 10
0.464661
 20
6.877747
 42
0.258495
 10
0.461731
 20
4.384094
 10
0.812317
 20
3.749573
  0
LWPOLYLINE
  5
231
100
AcDbEntity
  8
LAYER21
370
    13
390
0
  6
Continuous
 62
   213
100
AcDbPolyline
 90
        8
 70
     1
 10
5.98761
 20
-7.513855
 10
6.338196
 20
-6.879333
 42
0.258495
 10
6.335266
 20
-4.385681
 10
5.98761
 20
-3.759338
 10
0.812317
 20
-3.759338
 10
0.464661
 20
-4.385681
 42
0.258495
 10
0.461731
 20
-6.879333
 10
0.812317
 20
-7.513855
  0
LWPOLYLINE
  5
232
100
AcDbEntity
  8
LAYER21
370
    13
390
0
  6
Continuous
 62
   213
100
AcDbPolyline
 90
        2
 70
     0
 10
5.98761
 20
-3.754456
 10
0.812317
 20
-3.754456
  0
LWPOLYLINE
  5
233
100
AcDbEntity
  8
LAYER21
370
    13
390
0
  6
Continuous
 62
   213
100
AcDbPolyline
 90
        2
 70
     0
 10
5.98761
 20
3.754456
 10
0.812317
 20
3.754456
  0
LWPOLYLINE
  5
234
100
AcDbEntity
  8
LAYER21
370
    13
390
0
  6
Continuous
 62
   213
100
AcDbPolyline
 90
        2
 70
     0
 10
-0.612
 20
-0.000061
 10
7.411926
 20
-0.000061
  0
LWPOLYLINE
  5
235
100
AcDbEntity
  8
LAYER21
370
    13
390
0
  6
Continuous
 62
   213
100
AcDbPolyline
 90
        5
 70
     1
 10
6.80011
 20
-4.002502
 10
86.124329
 20
-4.002502
 10
96.80011
 20
-0.000061
 10
86.124329
 20
4.00238
 10
6.80011
 20
4.00238
  0
LWPOLYLINE
  5
236
100
AcDbEntity
  8
LAYER21
370
    13
390
0
  6
Continuous
 62
   213
100
AcDbPolyline
 90
        2
 70
     0
 10
-6.577332
 20
-0.000061
 10
110.911438
 20
-0.000061
  0
ENDBLK
  5
237
100
AcDbEntity
  8
0
390
0
100
AcDbBlockEnd
  0
BLOCK
  5
246
100
AcDbEntity
  8
0
390
0
100
AcDbBlockBegin
  2
_D---BQK_U_89
 70
     0
 10
0.0
 20
0.0
 30
0.0
  3
_D---BQK_U_89
  1

  0
LWPOLYLINE
  5
247
100
AcDbEntity
  8
LAYER01
370
    18
390
0
  6
Continuous
 62
     7
100
AcDbPolyline
 90
        2
 70
     0
 10
1339.21582
 20
245.349976
 10
1339.21582
 20
238.926147
  0
LWPOLYLINE
  5
248
100
AcDbEntity
  8
LAYER01
370
    18
390
0
  6
Continuous
 62
     7
100
AcDbPolyline
 90
        2
 70
     0
 10
1319.212402
 20
263.85437
 10
1319.212402
 20
238.926147
  0
LWPOLYLINE
  5
249
100
AcDbEntity
  8
LAYER01
370
    18
390
0
  6
Continuous
 62
     7
100
AcDbPolyline
 90
        2
 70
     0
 10
1334.21582
 20
240.926147
 10
1324.212402
 20
240.926147
  0
LWPOLYLINE
  5
24A
102
{ACAD_REACTORS
330
24B
102
}
100
AcDbEntity
  8
HATCH_REACTORS
390
0
100
AcDbPolyline
 90
        3
 70
     1
 10
1334.21582
 20
240.092773
 10
1334.21582
 20
241.759521
 10
1339.21582
 20
240.926147
  0
HATCH
  5
24B
100
AcDbEntity
  8
LAYER01
370
     5
390
0
  6
Continuous
 62
     7
100
AcDbHatch
 10
0.0
 20
0.0
 30
0.0
210
0.0
220
0.0
230
1.0
  2
_L-O---1
 70
     1
 71
     1
 91
        1
 92
        2
 72
     0
 73
     1
 93
        3
 10
1334.2158203125
 20
240.0927734375
 10
1334.2158203125
 20
241.759521484375
 10
1339.2158203125
 20
240.9261474609375
 97
        1
330
24A
 75
     0
 76
     0
 98
        0
  0
LWPOLYLINE
  5
24C
102
{ACAD_REACTORS
330
24D
102
}
100
AcDbEntity
  8
HATCH_REACTORS
390
0
100
AcDbPolyline
 90
        3
 70
     1
 10
1324.212402
 20
240.092773
 10
1319.212402
 20
240.926147
 10
1324.212402
 20
241.759521
  0
HATCH
  5
24D
100
AcDbEntity
  8
LAYER01
370
     5
390
0
  6
Continuous
 62
     7
100
AcDbHatch
 10
0.0
 20
0.0
 30
0.0
210
0.0
220
0.0
230
1.0
  2
_L-O---1
 70
     1
 71
     1
 91
        1
 92
        2
 72
     0
 73
     1
 93
        3
 10
1324.21240234375
 20
240.0927734375
 10
1319.21240234375
 20
240.9261474609375
 10
1324.21240234375
 20
241.759521484375
 97
        1
330
24C
 75
     0
 76
     0
 98
        0
  0
INSERT
  5
252
100
AcDbEntity
  8
LAYER01
390
0
100
AcDbBlockReference
  2
IT5E12___U_89
 10
1330.09082
 20
246.926147
 30
0.0
  0
ENDBLK
  5
253
100
AcDbEntity
  8
0
390
0
100
AcDbBlockEnd
  0
BLOCK
  5
24F
100
AcDbEntity
  8
0
390
0
100
AcDbBlockBegin
  2
IT5E12___U_89
 70
     0
 10
0.0
 20
0.0
 30
0.0
  3
IT5E12___U_89
  1

  0
MTEXT
  5
250
100
AcDbEntity
  8
LAYER01
390
0
  6
Continuous
 62
     7
100
AcDbMText
 10
-4.16748
 20
0.0
 30
0.0
 40
5.0
 41
0.0
 71
     7
 72
     1
  1
10
 73
     1
 44
1.2
  0
ENDBLK
  5
251
100
AcDbEntity
  8
0
390
0
100
AcDbBlockEnd
  0
BLOCK
  5
256
100
AcDbEntity
  8
0
390
0
100
AcDbBlockBegin
  2
_D---BQL_U_89
 70
     0
 10
0.0
 20
0.0
 30
0.0
  3
_D---BQL_U_89
  1

  0
LWPOLYLINE
  5
257
100
AcDbEntity
  8
LAYER01
370
    18
390
0
  6
Continuous
 62
     7
100
AcDbPolyline
 90
        2
 70
     0
 10
1347.21582
 20
298.555054
 10
1372.323242
 20
298.555054
  0
LWPOLYLINE
  5
258
100
AcDbEntity
  8
LAYER01
370
    18
390
0
  6
Continuous
 62
     7
100
AcDbPolyline
 90
        2
 70
     0
 10
1347.21582
 20
278.610229
 10
1372.323242
 20
278.610229
  0
LWPOLYLINE
  5
259
100
AcDbEntity
  8
LAYER01
370
    18
390
0
  6
Continuous
 62
     7
100
AcDbPolyline
 90
        2
 70
     0
 10
1370.323242
 20
293.555054
 10
1370.323242
 20
283.610229
  0
LWPOLYLINE
  5
25A
102
{ACAD_REACTORS
330
25B
102
}
100
AcDbEntity
  8
HATCH_REACTORS
390
0
100
AcDbPolyline
 90
        3
 70
     1
 10
1371.156738
 20
293.555054
 10
1369.490234
 20
293.555054
 10
1370.323242
 20
298.555054
  0
HATCH
  5
25B
100
AcDbEntity
  8
LAYER01
370
     5
390
0
  6
Continuous
 62
     7
100
AcDbHatch
 10
0.0
 20
0.0
 30
0.0
210
0.0
220
0.0
230
1.0
  2
_L-O---1
 70
     1
 71
     1
 91
        1
 92
        2
 72
     0
 73
     1
 93
        3
 10
1371.15673828125
 20
293.5550537109375
 10
1369.490234375
 20
293.5550537109375
 10
1370.3232421875
 20
298.5550537109375
 97
        1
330
25A
 75
     0
 76
     0
 98
        0
  0
LWPOLYLINE
  5
25C
102
{ACAD_REACTORS
330
25D
102
}
100
AcDbEntity
  8
HATCH_REACTORS
390
0
100
AcDbPolyline
 90
        3
 70
     1
 10
1371.156738
 20
283.610229
 10
1370.323242
 20
278.610229
 10
1369.490234
 20
283.610229
  0
HATCH
  5
25D
100
AcDbEntity
  8
LAYER01
370
     5
390
0
  6
Continuous
 62
     7
100
AcDbHatch
 10
0.0
 20
0.0
 30
0.0
210
0.0
220
0.0
230
1.0
  2
_L-O---1
 70
     1
 71
     1
 91
        1
 92
        2
 72
     0
 73
     1
 93
        3
 10
1371.15673828125
 20
283.6102294921875
 10
1370.3232421875
 20
278.6102294921875
 10
1369.490234375
 20
283.6102294921875
 97
        1
330
25C
 75
     0
 76
     0
 98
        0
  0
INSERT
  5
262
100
AcDbEntity
  8
LAYER01
390
0
100
AcDbBlockReference
  2
IT5E12___U_892
 10
1364.323242
 20
289.103577
 30
0.0
 50
90.0
  0
ENDBLK
  5
263
100
AcDbEntity
  8
0
390
0
100
AcDbBlockEnd
  0
BLOCK
  5
25F
100
AcDbEntity
  8
0
390
0
100
AcDbBlockBegin
  2
IT5E12___U_892
 70
     0
 10
0.0
 20
0.0
 30
0.0
  3
IT5E12___U_892
  1

  0
MTEXT
  5
260
100
AcDbEntity
  8
LAYER01
390
0
  6
Continuous
 62
     7
100
AcDbMText
 10
-4.16748
 20
0.0
 30
0.0
 40
5.0
 41
0.0
 71
     7
 72
     1
  1
10
 11
1.0
 21
0.0
 31
0.0
 73
     1
 44
1.2
  0
ENDBLK
  5
261
100
AcDbEntity
  8
0
390
0
100
AcDbBlockEnd
  0
BLOCK
  5
35B
100
AcDbEntity
  8
0
390
0
100
AcDbBlockBegin
  2
_D---BQM_U_89
 70
     0
 10
0.0
 20
0.0
 30
0.0
  3
_D---BQM_U_89
  1

  0
LWPOLYLINE
  5
35C
100
AcDbEntity
  8
LAYER01
370
    18
390
0
  6
Continuous
 62
     7
100
AcDbPolyline
 90
        2
 70
     0
 10
1339.21582
 20
211.273926
 10
1286.928223
 20
211.273926
  0
LWPOLYLINE
  5
35D
100
AcDbEntity
  8
LAYER01
370
    18
390
0
  6
Continuous
 62
     7
100
AcDbPolyline
 90
        2
 70
     0
 10
1339.21582
 20
278.610229
 10
1286.928223
 20
278.610229
  0
LWPOLYLINE
  5
35E
100
AcDbEntity
  8
LAYER01
370
    18
390
0
  6
Continuous
 62
     7
100
AcDbPolyline
 90
        2
 70
     0
 10
1288.928223
 20
216.273926
 10
1288.928223
 20
273.610229
  0
LWPOLYLINE
  5
35F
102
{ACAD_REACTORS
330
360
102
}
100
AcDbEntity
  8
HATCH_REACTORS
390
0
100
AcDbPolyline
 90
        3
 70
     1
 10
1289.76123
 20
216.273926
 10
1288.928223
 20
211.273926
 10
1288.094727
 20
216.273926
  0
HATCH
  5
360
100
AcDbEntity
  8
LAYER01
370
     5
390
0
  6
Continuous
 62
     7
100
AcDbHatch
 10
0.0
 20
0.0
 30
0.0
210
0.0
220
0.0
230
1.0
  2
_L-O---1
 70
     1
 71
     1
 91
        1
 92
        2
 72
     0
 73
     1
 93
        3
 10
1289.76123046875
 20
216.27392578125
 10
1288.92822265625
 20
211.27392578125
 10
1288.0947265625
 20
216.27392578125
 97
        1
330
35F
 75
     0
 76
     0
 98
        0
  0
LWPOLYLINE
  5
361
102
{ACAD_REACTORS
330
362
102
}
100
AcDbEntity
  8
HATCH_REACTORS
390
0
100
AcDbPolyline
 90
        3
 70
     1
 10
1289.76123
 20
273.610229
 10
1288.094727
 20
273.610229
 10
1288.928223
 20
278.610229
  0
HATCH
  5
362
100
AcDbEntity
  8
LAYER01
370
     5
390
0
  6
Continuous
 62
     7
100
AcDbHatch
 10
0.0
 20
0.0
 30
0.0
210
0.0
220
0.0
230
1.0
  2
_L-O---1
 70
     1
 71
     1
 91
        1
 92
        2
 72
     0
 73
     1
 93
        3
 10
1289.76123046875
 20
273.6102294921875
 10
1288.0947265625
 20
273.6102294921875
 10
1288.92822265625
 20
278.6102294921875
 97
        1
330
361
 75
     0
 76
     0
 98
        0
  0
INSERT
  5
367
100
AcDbEntity
  8
LAYER01
390
0
100
AcDbBlockReference
  2
IT5E11___U_89
 10
1283.928223
 20
245.351074
 30
0.0
 50
90.0
  0
ENDBLK
  5
368
100
AcDbEntity
  8
0
390
0
100
AcDbBlockEnd
  0
BLOCK
  5
364
100
AcDbEntity
  8
0
390
0
100
AcDbBlockBegin
  2
IT5E11___U_89
 70
     0
 10
0.0
 20
0.0
 30
0.0
  3
IT5E11___U_89
  1

  0
MTEXT
  5
365
100
AcDbEntity
  8
LAYER01
390
0
  6
Continuous
 62
     7
100
AcDbMText
 10
-6.104431
 20
0.0
 30
0.0
 40
3.24
 41
0.0
 71
     7
 72
     1
  1
{\fArial|b0|i0|c12|p0;50mm}
 11
1.0
 21
0.0
 31
0.0
 73
     1
 44
1.333333
  0
ENDBLK
  5
366
100
AcDbEntity
  8
0
390
0
100
AcDbBlockEnd
  0
BLOCK
  5
36C
100
AcDbEntity
  8
0
390
0
100
AcDbBlockBegin
  2
_D---BRW_U_89
 70
     0
 10
0.0
 20
0.0
 30
0.0
  3
_D---BRW_U_89
  1

  0
LWPOLYLINE
  5
36D
100
AcDbEntity
  8
LAYER01
370
    18
390
0
  6
Continuous
 62
     7
100
AcDbPolyline
 90
        2
 70
     0
 10
2498.945374
 20
48.94873
 10
2511.451721
 20
48.94873
  0
LWPOLYLINE
  5
36E
100
AcDbEntity
  8
LAYER01
370
    18
390
0
  6
Continuous
 62
     7
100
AcDbPolyline
 90
        2
 70
     0
 10
2490.80304
 20
78.94873
 10
2511.451721
 20
78.94873
  0
LWPOLYLINE
  5
36F
100
AcDbEntity
  8
LAYER01
370
    18
390
0
  6
Continuous
 62
     7
100
AcDbPolyline
 90
        2
 70
     0
 10
2509.451721
 20
53.94873
 10
2509.451721
 20
73.94873
  0
LWPOLYLINE
  5
370
102
{ACAD_REACTORS
330
371
102
}
100
AcDbEntity
  8
HATCH_REACTORS
390
0
100
AcDbPolyline
 90
        3
 70
     1
 10
2510.285217
 20
53.94873
 10
2509.451721
 20
48.94873
 10
2508.618469
 20
53.94873
  0
HATCH
  5
371
100
AcDbEntity
  8
LAYER01
370
     5
390
0
  6
Continuous
 62
     7
100
AcDbHatch
 10
0.0
 20
0.0
 30
0.0
210
0.0
220
0.0
230
1.0
  2
_L-O---1
 70
     1
 71
     1
 91
        1
 92
        2
 72
     0
 73
     1
 93
        3
 10
2510.2852172851562
 20
53.94873046875
 10
2509.4517211914062
 20
48.94873046875
 10
2508.6184692382812
 20
53.94873046875
 97
        1
330
370
 75
     0
 76
     0
 98
        0
  0
LWPOLYLINE
  5
372
102
{ACAD_REACTORS
330
373
102
}
100
AcDbEntity
  8
HATCH_REACTORS
390
0
100
AcDbPolyline
 90
        3
 70
     1
 10
2510.285217
 20
73.94873
 10
2508.618469
 20
73.94873
 10
2509.451721
 20
78.94873
  0
HATCH
  5
373
100
AcDbEntity
  8
LAYER01
370
     5
390
0
  6
Continuous
 62
     7
100
AcDbHatch
 10
0.0
 20
0.0
 30
0.0
210
0.0
220
0.0
230
1.0
  2
_L-O---1
 70
     1
 71
     1
 91
        1
 92
        2
 72
     0
 73
     1
 93
        3
 10
2510.2852172851562
 20
73.94873046875
 10
2508.6184692382812
 20
73.94873046875
 10
2509.4517211914062
 20
78.94873046875
 97
        1
330
372
 75
     0
 76
     0
 98
        0
  0
MTEXT
  5
374
100
AcDbEntity
  8
LAYER01
390
0
  6
Continuous
 62
     7
100
AcDbMText
 10
2506.131592
 20
58.306152
 30
0.0
 40
3.24
 41
0.0
 71
     7
 72
     1
  1
{\fArial|b0|i0|c12|p0;_        }
 11
0.0
 21
1.0
 31
0.0
 73
     1
 44
1.333333
  0
MTEXT
  5
375
100
AcDbEntity
  8
LAYER01
390
0
  6
Continuous
 62
     7
100
AcDbMText
 10
2506.831543
 20
58.186035
 30
0.0
 40
4.5
 41
0.0
 71
     7
 72
     1
  1
{\fArial|b0|i0|c12|p0;>28*}
 11
0.0
 21
1.0
 31
0.0
 73
     1
 44
1.333333
  0
ENDBLK
  5
376
100
AcDbEntity
  8
0
390
0
100
AcDbBlockEnd
  0
BLOCK
  5
37A
100
AcDbEntity
  8
0
390
0
100
AcDbBlockBegin
  2
T-ROCKP__U_M_89
 70
     0
 10
0.0
 20
0.0
 30
0.0
  3
T-ROCKP__U_M_89
  1

  0
MTEXT
  5
37B
100
AcDbEntity
  8
LAYER01
390
0
  6
Continuous
 62
     7
100
AcDbMText
 10
53.455078
 20
-1.666687
 30
0.0
 40
4.5
 41
0.0
 71
     7
 72
     1
  1
{\fArial|b0|i0|c12|p0;ROCKPANEL 8MM}
 11
-1.0
 21
0.0
 31
0.0
 73
     1
 44
1.333333
  0
ENDBLK
  5
37C
100
AcDbEntity
  8
0
390
0
100
AcDbBlockEnd
  0
BLOCK
  5
37F
100
AcDbEntity
  8
0
390
0
100
AcDbBlockBegin
  2
T-VENTIL_U_89
 70
     0
 10
0.0
 20
0.0
 30
0.0
  3
T-VENTIL_U_89
  1

  0
MTEXT
  5
380
100
AcDbEntity
  8
LAYER127
390
0
  6
Continuous
 62
     7
100
AcDbMText
 10
0.0
 20
1.666504
 30
0.0
 40
4.5
 41
0.0
 71
     7
 72
     1
  1
{\fArial|b0|i0|c12|p0;VENTILATIE}
 73
     1
 44
1.333333
  0
ENDBLK
  5
382
100
AcDbEntity
  8
0
390
0
100
AcDbBlockEnd
  0
BLOCK
  5
385
100
AcDbEntity
  8
0
390
0
100
AcDbBlockBegin
  2
T-VENTIL_U_892
 70
     0
 10
0.0
 20
0.0
 30
0.0
  3
T-VENTIL_U_892
  1

  0
MTEXT
  5
386
100
AcDbEntity
  8
LAYER127
390
0
  6
Continuous
 62
     7
100
AcDbMText
 10
0.0
 20
1.666687
 30
0.0
 40
4.5
 41
0.0
 71
     7
 72
     1
  1
{\fArial|b0|i0|c12|p0;VENTILATIE}
 73
     1
 44
1.333333
  0
ENDBLK
  5
387
100
AcDbEntity
  8
0
390
0
100
AcDbBlockEnd
  0
BLOCK
  5
38A
100
AcDbEntity
  8
0
390
0
100
AcDbBlockBegin
  2
T-ACHTER_U_89
 70
     0
 10
0.0
 20
0.0
 30
0.0
  3
T-ACHTER_U_89
  1

  0
MTEXT
  5
38B
100
AcDbEntity
  8
LAYER127
390
0
  6
Continuous
 62
     7
100
AcDbMText
 10
0.0
 20
11.666687
 30
0.0
 40
4.5
 41
0.0
 71
     7
 72
     1
  1
{\fArial|b0|i0|c12|p0;* BIJ OPEN GEVELSYSTEMEN OP ALUMINIUM ACHTERCONSTRUCTIE}
 73
     1
 44
1.333333
  0
MTEXT
  5
38C
100
AcDbEntity
  8
LAYER127
390
0
  6
Continuous
 62
     7
100
AcDbMText
 10
0.0
 20
1.666687
 30
0.0
 40
4.5
 41
0.0
 71
     7
 72
     1
  1
{\fArial|b0|i0|c12|p0;  ADVISEERT ROCKPANEL EEN SPOUWDIEPTE VAN TENMINSTE  60 MM}
 73
     1
 44
1.333333
  0
ENDBLK
  5
38D
100
AcDbEntity
  8
0
390
0
100
AcDbBlockEnd
  0
BLOCK
  5
3A3
100
AcDbEntity
  8
0
390
0
100
AcDbBlockBegin
  2
KLPL2_A4_U_0
 70
     0
 10
0.0
 20
0.0
 30
0.0
  3
KLPL2_A4_U_0
  1

  0
LWPOLYLINE
  5
3A4
100
AcDbEntity
  8
LAYER98
370
    18
390
0
  6
Continuous
 62
     7
100
AcDbPolyline
 90
        4
 70
     1
 10
-180.0
 20
190.0
 10
97.0
 20
190.0
 10
97.0
 20
0.0
 10
-180.0
 20
0.0
  0
LWPOLYLINE
  5
3A5
100
AcDbEntity
  8
LAYER98
370
    25
390
0
  6
DOT
 62
     8
100
AcDbPolyline
 90
        2
 70
     0
 10
107.0
 20
200.0
 10
105.366943
 20
198.845459
  0
LWPOLYLINE
  5
3A6
100
AcDbEntity
  8
LAYER98
370
    25
390
0
  6
DOT
 62
     8
100
AcDbPolyline
 90
        2
 70
     0
 10
-190.0
 20
200.0
 10
-188.366943
 20
198.845215
  0
LWPOLYLINE
  5
3A7
100
AcDbEntity
  8
LAYER98
370
    25
390
0
  6
DOT
 62
     8
100
AcDbPolyline
 90
        2
 70
     0
 10
-190.0
 20
-10.0
 10
-188.366943
 20
-8.845215
  0
LWPOLYLINE
  5
3A8
100
AcDbEntity
  8
LAYER98
370
    25
390
0
  6
DOT
 62
     8
100
AcDbPolyline
 90
        2
 70
     0
 10
107.0
 20
-10.0
 10
105.366943
 20
-8.845459
  0
LWPOLYLINE
  5
3A9
100
AcDbEntity
  8
LAYER98
370
    35
390
0
  6
Continuous
 62
   134
100
AcDbPolyline
 90
        2
 70
     0
 10
-149.800049
 20
190.0
 10
-149.800049
 20
0.0
  0
MTEXT
  5
3AA
100
AcDbEntity
  8
LAYER98
390
0
  6
Continuous
 62
     7
100
AcDbMText
 10
-156.866714
 20
177.800049
 30
0.0
 40
4.5
 41
0.0
 71
     7
 72
     1
  1
{\fArial|b0|i0|c12|p0;DETAIL 2-500}
 11
0.0
 21
-1.0
 31
0.0
 73
     1
 44
1.333333
  0
MTEXT
  5
3AB
100
AcDbEntity
  8
LAYER98
390
0
  6
Continuous
 62
     7
100
AcDbMText
 10
-164.416718
 20
177.800049
 30
0.0
 40
3.15
 41
0.0
 71
     7
 72
     1
  1
{\fArial|b0|i0|c12|p0;dakaansluiting}
 11
0.0
 21
-1.0
 31
0.0
 73
     1
 44
1.333333
  0
MTEXT
  5
3AC
100
AcDbEntity
  8
LAYER98
390
0
  6
Continuous
 62
     7
100
AcDbMText
 10
-169.966721
 20
177.800049
 30
0.0
 40
3.15
 41
0.0
 71
     7
 72
     1
  1
{\fArial|b0|i0|c12|p0;bij aluminium draagconstructie}
 11
0.0
 21
-1.0
 31
0.0
 73
     1
 44
1.333333
  0
ENDBLK
  5
3AD
100
AcDbEntity
  8
0
390
0
100
AcDbBlockEnd
  0
ENDSEC
  0
SECTION
  2
ENTITIES
  0
IMAGE
  5
3AF
100
AcDbEntity
  8
LAYER98
390
0
 92
      140
310
0000000000000000840000000600000005000000000000009AF9614000000080A9B073400000000000000000000000009AF96140894CC3F6FF9F794000000000000000000000000000C06540894CC3F6FF9F794000000000000000000000000000C0654000000080A9B073400000000000000000000000009AF96140000000
310
80A9B073400000000000000000
100
AcDbRasterImage
 90
        0
 10
143.800049
 20
315.041382
 30
0.0
 11
0.077835
 21
0.0
 31
0.0
 12
0.0
 22
0.077835
 32
0.0
 13
388.0
 23
1220.0
340
3B3
 70
     7
280
     0
281
    50
282
    50
283
     0
360
3B2
 71
     1
 91
        2
 14
-0.5
 24
-0.5
 14
387.5
 24
1219.5
  0
VIEWPORT
  5
28
100
AcDbEntity
 67
     1
  8
0
390
0
100
AcDbViewport
 10
0.0
 20
0.0
 30
0.0
 40
1.0
 41
1.0
 68
     0
 69
     1
 12
36.0
 22
105.0
 13
0.0
 23
0.0
 14
0.5
 24
0.5
 15
0.5
 25
0.5
 16
0.0
 26
0.0
 36
1.0
 17
0.0
 27
0.0
 37
0.0
 42
50.0
 43
0.0
 44
0.0
 45
1064.000052
 50
0.0
 51
0.0
 72
   100
 90
    32800
340
0
  1

281
     0
 71
     0
 74
     1
110
0.0
120
0.0
130
0.0
111
1.0
121
0.0
131
0.0
112
0.0
122
1.0
132
0.0
345
0
346
0
 79
     0
146
0.0
  0
LWPOLYLINE
  5
3A0
100
AcDbEntity
 67
     1
  8
0
390
0
100
AcDbPolyline
 90
        4
 70
     1
 10
-103.0
 20
220.0
 10
-103.0
 20
410.0
 10
143.800049
 20
410.0
 10
143.800049
 20
220.0
  0
VIEWPORT
  5
3A1
100
AcDbEntity
 67
     1
  8
LAYER98
390
0
100
AcDbViewport
 10
20.400024
 20
315.0
 30
0.0
 40
246.800049
 41
190.0
 68
     2
 69
     2
 12
0.0
 22
0.0
 13
0.0
 23
0.0
 14
0.5
 24
0.5
 15
0.5
 25
0.5
 16
0.0
 26
0.0
 36
1.0
 17
-735.57428
 27
-4965.120605
 37
0.0
 42
50.0
 43
0.0
 44
0.0
 45
380.0
 50
0.0
 51
0.0
 72
   100
 90
    65536
340
3A0
  1

281
     0
 71
     0
 74
     1
110
0.0
120
0.0
130
0.0
111
1.0
121
0.0
131
0.0
112
0.0
122
1.0
132
0.0
345
0
346
0
 79
     0
146
0.0
  0
INSERT
  5
3AE
100
AcDbEntity
 67
     1
  8
LAYER98
390
0
100
AcDbBlockReference
  2
KLPL2_A4_U_0
 10
-6.0
 20
410.0
 30
0.0
 50
180.0
  0
INSERT
  5
39F
100
AcDbEntity
  8
LAYER98
390
0
100
AcDbBlockReference
  2
DET-DUI2_89
 10
0.0
 20
0.0
 30
0.0
  0
ENDSEC
  0
SECTION
  2
OBJECTS
  0
DICTIONARY
  5
19
100
AcDbDictionary
280
     0
281
     1
  3
ACAD_GROUP
350
1A
  3
ACAD_MLINESTYLE
350
1B
  3
ACAD_LAYOUT
350
1E
  3
ACAD_PLOTSETTINGS
350
22
  3
ACAD_PLOTSTYLENAME
350
1F
  3
ACAD_WIPEOUT_VARS
350
23
  3
ACAD_IMAGE_VARS
350
3B0
  3
ACAD_IMAGE_DICT
350
3B1
  0
DICTIONARY
  5
1A
102
{ACAD_REACTORS
330
19
102
}
100
AcDbDictionary
280
     0
281
     1
  0
DICTIONARY
  5
1B
102
{ACAD_REACTORS
330
19
102
}
100
AcDbDictionary
280
     0
281
     1
  3
Standard
350
1C
  0
MLINESTYLE
  5
1C
102
{ACAD_REACTORS
330
1B
102
}
100
AcDbMlineStyle
  2
Standard
 70
     0
  3

 62
     0
 51
90.0
 52
90.0
 71
     2
 49
0.5
 62
   256
  6
ByLayer
 49
-0.5
 62
   256
  6
ByLayer
  0
ACDBDICTIONARYWDFLT
  5
1F
102
{ACAD_REACTORS
330
19
102
}
100
AcDbDictionary
281
     1
  3
Normal
350
1D
100
AcDbDictionaryWithDefault
340
1D
  0
ACDBPLACEHOLDER
  5
1D
102
{ACAD_REACTORS
330
1F
102
}
  0
LAYOUT
  5
20
102
{ACAD_REACTORS
330
1E
102
}
100
AcDbPlotSettings
  1

  2

  4

  6

 40
0.0
 41
0.0
 42
0.0
 43
0.0
 44
0.0
 45
0.0
 46
0.0
 47
0.0
 48
0.0
 49
0.0
140
0.0
141
0.0
142
1.0
143
1.0
 70
  1024
 72
     0
 73
     0
 74
     0
  7

 75
     0
147
1.0
148
0.0
149
0.0
100
AcDbLayout
  1
Model
 70
     0
 71
     0
 10
0.0
 20
0.0
 11
0.0
 21
0.0
 12
0.0
 22
0.0
 32
0.0
 14
0.0
 24
0.0
 34
0.0
 15
0.0
 25
0.0
 35
0.0
146
0.0
 13
0.0
 23
0.0
 33
0.0
 16
0.0
 26
0.0
 36
0.0
 17
0.0
 27
0.0
 37
0.0
 76
     0
330
A
331
0
345
0
346
0
  0
LAYOUT
  5
21
102
{ACAD_REACTORS
330
1E
102
}
100
AcDbPlotSettings
  1

  2

  4

  6

 40
0.0
 41
0.0
 42
0.0
 43
0.0
 44
0.0
 45
0.0
 46
0.0
 47
0.0
 48
0.0
 49
0.0
140
0.0
141
0.0
142
1.0
143
1.0
 70
     0
 72
     0
 73
     0
 74
     0
  7

 75
     0
147
1.0
148
0.0
149
0.0
100
AcDbLayout
  1
Layout1
 70
     0
 71
     0
 10
0.0
 20
0.0
 11
0.0
 21
0.0
 12
0.0
 22
0.0
 32
0.0
 14
0.0
 24
0.0
 34
0.0
 15
0.0
 25
0.0
 35
0.0
146
0.0
 13
0.0
 23
0.0
 33
0.0
 16
0.0
 26
0.0
 36
0.0
 17
0.0
 27
0.0
 37
0.0
 76
     0
330
B
331
0
345
0
346
0
  0
DICTIONARY
  5
1E
102
{ACAD_REACTORS
330
19
102
}
100
AcDbDictionary
280
     0
281
     1
  3
Layout1
350
21
  3
Model
350
20
  0
DICTIONARY
  5
22
102
{ACAD_REACTORS
330
19
102
}
100
AcDbDictionary
280
     0
281
     1
  0
WIPEOUTVARIABLES
  5
23
100
AcDbWipeoutVariables
 70
     1
  0
RASTERVARIABLES
  5
3B0
102
{ACAD_REACTORS
330
19
102
}
100
AcDbRasterVariables
 90
        0
 70
     1
 71
     1
 72
     0
  0
DICTIONARY
  5
3B1
102
{ACAD_REACTORS
330
19
102
}
100
AcDbDictionary
280
     0
281
     1
  3

350
3B3
  0
IMAGEDEF
  5
3B3
102
{ACAD_REACTORS
330
3B1
330
3B2
102
}
100
AcDbRasterImageDef
 90
        0
  1
.PCX
 10
388.0
 20
1220.0
 11
0.352778
 21
0.352778
280
     1
281
     5
  0
IMAGEDEF_REACTOR
  5
3B2
100
AcDbRasterImageDefReactor
 90
        2
330
3AF
  0
ENDSEC
  0
EOF
