  0
SECTION
  2
HEADER
  9
$ACADVER
  1
AC1015
  9
$ACADMAINTVER
 70
     6
  9
$DWGCODEPAGE
  3
ANSI_1252
  9
$INSBASE
 10
0.0
 20
0.0
 30
0.0
  9
$EXTMIN
 10
1.000000E+20
 20
1.000000E+20
 30
1.000000E+20
  9
$EXTMAX
 10
-1.000000E+20
 20
-1.000000E+20
 30
-1.000000E+20
  9
$LIMMIN
 10
0.0
 20
0.0
  9
$LIMMAX
 10
0.0
 20
0.0
  9
$ORTHOMODE
 70
     0
  9
$REGENMODE
 70
     1
  9
$FILLMODE
 70
     1
  9
$QTEXTMODE
 70
     0
  9
$MIRRTEXT
 70
     1
  9
$LTSCALE
 40
1.0
  9
$ATTMODE
 70
     1
  9
$TEXTSIZE
 40
0.2
  9
$TRACEWID
 40
0.05
  9
$TEXTSTYLE
  7
Standard
  9
$CLAYER
  8
0
  9
$CELTYPE
  6
Continuous
  9
$CECOLOR
 62
   256
  9
$CELTSCALE
 40
1.0
  9
$DISPSILH
 70
     0
  9
$DIMSCALE
 40
1.0
  9
$DIMASZ
 40
0.18
  9
$DIMEXO
 40
0.0625
  9
$DIMDLI
 40
0.38
  9
$DIMRND
 40
0.0
  9
$DIMDLE
 40
0.0
  9
$DIMEXE
 40
0.18
  9
$DIMTP
 40
0.0
  9
$DIMTM
 40
0.0
  9
$DIMTXT
 40
0.18
  9
$DIMCEN
 40
0.09
  9
$DIMTSZ
 40
0.0
  9
$DIMTOL
 70
     0
  9
$DIMLIM
 70
     0
  9
$DIMTIH
 70
     1
  9
$DIMTOH
 70
     1
  9
$DIMSE1
 70
     0
  9
$DIMSE2
 70
     0
  9
$DIMTAD
 70
     0
  9
$DIMZIN
 70
     0
  9
$DIMBLK
  1

  9
$DIMASO
 70
     1
  9
$DIMSHO
 70
     1
  9
$DIMPOST
  1

  9
$DIMAPOST
  1

  9
$DIMALT
 70
     0
  9
$DIMALTD
 70
     2
  9
$DIMALTF
 40
25.4
  9
$DIMLFAC
 40
1.0
  9
$DIMTOFL
 70
     0
  9
$DIMTVP
 40
0.0
  9
$DIMTIX
 70
     0
  9
$DIMSOXD
 70
     0
  9
$DIMSAH
 70
     0
  9
$DIMBLK1
  1

  9
$DIMBLK2
  1

  9
$DIMSTYLE
  2
Standard
  9
$DIMCLRD
 70
     0
  9
$DIMCLRE
 70
     0
  9
$DIMCLRT
 70
     0
  9
$DIMTFAC
 40
1.0
  9
$DIMGAP
 40
0.09
  9
$DIMJUST
 70
     0
  9
$DIMSD1
 70
     0
  9
$DIMSD2
 70
     0
  9
$DIMTOLJ
 70
     1
  9
$DIMTZIN
 70
     0
  9
$DIMALTZ
 70
     0
  9
$DIMALTTZ
 70
     0
  9
$DIMUPT
 70
     0
  9
$DIMDEC
 70
     4
  9
$DIMTDEC
 70
     4
  9
$DIMALTU
 70
     2
  9
$DIMALTTD
 70
     2
  9
$DIMTXSTY
  7
Standard
  9
$DIMAUNIT
 70
     0
  9
$DIMADEC
 70
     0
  9
$DIMALTRND
 40
0.0
  9
$DIMAZIN
 70
     0
  9
$DIMDSEP
 70
     0
  9
$DIMATFIT
 70
     3
  9
$DIMFRAC
 70
     0
  9
$DIMLDRBLK
  1

  9
$DIMLUNIT
 70
     2
  9
$DIMLWD
 70
     0
  9
$DIMLWE
 70
     0
  9
$DIMTMOVE
 70
     0
  9
$LUNITS
 70
     2
  9
$LUPREC
 70
     4
  9
$SKETCHINC
 40
0.1
  9
$FILLETRAD
 40
0.0
  9
$AUNITS
 70
     0
  9
$AUPREC
 70
     0
  9
$MENU
  1
acad
  9
$ELEVATION
 40
0.0
  9
$PELEVATION
 40
0.0
  9
$THICKNESS
 40
0.0
  9
$LIMCHECK
 70
     0
  9
$CHAMFERA
 40
0.0
  9
$CHAMFERB
 40
0.0
  9
$CHAMFERC
 40
0.0
  9
$CHAMFERD
 40
0.0
  9
$SKPOLY
 70
     0
  9
$TDCREATE
 40
0.000000000
  9
$TDUCREATE
 40
0.000000000
  9
$TDUPDATE
 40
0.000000000
  9
$TDUUPDATE
 40
0.000000000
  9
$TDINDWG
 40
0.0000000000
  9
$TDUSRTIMER
 40
0.0000000000
  9
$USRTIMER
 70
     1
  9
$ANGBASE
 50
0.0
  9
$ANGDIR
 70
     0
  9
$PDMODE
 70
     0
  9
$PDSIZE
 40
0.0
  9
$PLINEWID
 40
0.0
  9
$SPLFRAME
 70
     0
  9
$SPLINETYPE
 70
     6
  9
$SPLINESEGS
 70
     8
  9
$HANDSEED
  5
493
  9
$SURFTAB1
 70
     6
  9
$SURFTAB2
 70
     6
  9
$SURFTYPE
 70
     6
  9
$SURFU
 70
     6
  9
$SURFV
 70
     6
  9
$UCSBASE
  2

  9
$UCSNAME
  2

  9
$UCSORG
 10
0.0
 20
0.0
 30
0.0
  9
$UCSXDIR
 10
1.0
 20
0.0
 30
0.0
  9
$UCSYDIR
 10
0.0
 20
1.0
 30
0.0
  9
$UCSORTHOREF
  2

  9
$UCSORTHOVIEW
 70
     0
  9
$UCSORGTOP
 10
0.0
 20
0.0
 30
0.0
  9
$UCSORGBOTTOM
 10
0.0
 20
0.0
 30
0.0
  9
$UCSORGLEFT
 10
0.0
 20
0.0
 30
0.0
  9
$UCSORGRIGHT
 10
0.0
 20
0.0
 30
0.0
  9
$UCSORGFRONT
 10
0.0
 20
0.0
 30
0.0
  9
$UCSORGBACK
 10
0.0
 20
0.0
 30
0.0
  9
$PUCSBASE
  2

  9
$PUCSNAME
  2

  9
$PUCSORG
 10
0.0
 20
0.0
 30
0.0
  9
$PUCSXDIR
 10
1.0
 20
0.0
 30
0.0
  9
$PUCSYDIR
 10
0.0
 20
1.0
 30
0.0
  9
$PUCSORTHOREF
  2

  9
$PUCSORTHOVIEW
 70
     0
  9
$PUCSORGTOP
 10
0.0
 20
0.0
 30
0.0
  9
$PUCSORGBOTTOM
 10
0.0
 20
0.0
 30
0.0
  9
$PUCSORGLEFT
 10
0.0
 20
0.0
 30
0.0
  9
$PUCSORGRIGHT
 10
0.0
 20
0.0
 30
0.0
  9
$PUCSORGFRONT
 10
0.0
 20
0.0
 30
0.0
  9
$PUCSORGBACK
 10
0.0
 20
0.0
 30
0.0
  9
$USERI1
 70
 12345
  9
$USERI2
 70
     0
  9
$USERI3
 70
     0
  9
$USERI4
 70
     0
  9
$USERI5
 70
     0
  9
$USERR1
 40
0.0
  9
$USERR2
 40
0.0
  9
$USERR3
 40
0.0
  9
$USERR4
 40
0.0
  9
$USERR5
 40
0.0
  9
$WORLDVIEW
 70
     1
  9
$SHADEDGE
 70
     3
  9
$SHADEDIF
 70
    70
  9
$TILEMODE
 70
     0
  9
$MAXACTVP
 70
    64
  9
$PINSBASE
 10
0.0
 20
0.0
 30
0.0
  9
$PLIMCHECK
 70
     0
  9
$PEXTMIN
 10
-716.312029
 20
-388.99998
 30
0.0
  9
$PEXTMAX
 10
1008.796404
 20
676.99998
 30
0.0
  9
$PLIMMIN
 10
0.0
 20
0.0
  9
$PLIMMAX
 10
12.0
 20
9.0
  9
$UNITMODE
 70
     0
  9
$VISRETAIN
 70
     0
  9
$PLINEGEN
 70
     1
  9
$PSLTSCALE
 70
     0
  9
$TREEDEPTH
 70
  3020
  9
$CMLSTYLE
  2
Standard
  9
$CMLJUST
 70
     0
  9
$CMLSCALE
 40
1.0
  9
$PROXYGRAPHICS
 70
     0
  9
$MEASUREMENT
 70
     0
  9
$CELWEIGHT
370
     0
  9
$ENDCAPS
280
     0
  9
$JOINSTYLE
280
     0
  9
$LWDISPLAY
290
     0
  9
$INSUNITS
 70
     0
  9
$HYPERLINKBASE
  1

  9
$STYLESHEET
  1

  9
$XEDIT
290
     1
  9
$CEPSNTYPE
380
     0
  9
$PSTYLEMODE
290
     1
  9
$FINGERPRINTGUID
  2

  9
$VERSIONGUID
  2

  9
$EXTNAMES
290
     1
  9
$PSVPSCALE
 40
0.0
  0
ENDSEC
  0
SECTION
  2
CLASSES
  0
CLASS
  1
LWPOLYLINE
  2
AcDbPolyline
  3
AutoCAD 2000
 90
        0
280
     0
281
     1
  0
CLASS
  1
IMAGE
  2
AcDbRasterImage
  3
ISM
 90
      127
280
     0
281
     1
  0
CLASS
  1
OLE2FRAME
  2
AcDbOle2Frame
  3
AutoCAD 2000
 90
        0
280
     0
281
     1
  0
CLASS
  1
HATCH
  2
AcDbHatch
  3
AutoCAD 2000
 90
        0
280
     0
281
     1
  0
CLASS
  1
DICTIONARYVAR
  2
AcDbDictionaryVar
  3
AutoCAD 2000
 90
        0
280
     0
281
     0
  0
CLASS
  1
RASTERVARIABLES
  2
AcDbRasterVariables
  3
ISM
 90
        0
280
     0
281
     0
  0
CLASS
  1
IMAGEDEF
  2
AcDbRasterImageDef
  3
ISM
 90
        0
280
     0
281
     0
  0
CLASS
  1
IMAGEDEF_REACTOR
  2
AcDbRasterImageDefReactor
  3
ISM
 90
        1
280
     0
281
     0
  0
CLASS
  1
IDBUFFER
  2
AcDbIdBuffer
  3
AutoCAD 2000
 90
        0
280
     0
281
     0
  0
CLASS
  1
SPATIAL_FILTER
  2
AcDbSpatialFilter
  3
AutoCAD 2000
 90
        0
280
     0
281
     0
  0
CLASS
  1
XRECORD
  2
AcDbXrecord
  3
AutoCAD 2000
 90
        0
280
     0
281
     0
  0
CLASS
  1
SORTENTSTABLE
  2
AcDbSortentsTable
  3
AutoCAD 2000
 90
        0
280
     0
281
     0
  0
CLASS
  1
LAYER_INDEX
  2
AcDbLayerIndex
  3
AutoCAD 2000
 90
        0
280
     0
281
     0
  0
CLASS
  1
SPATIAL_INDEX
  2
AcDbSpatialIndex
  3
AutoCAD 2000
 90
        0
280
     0
281
     0
  0
CLASS
  1
OBJECT_PTR
  2
CAseDLPNTableRecord
  3
"ASE-LPNTableRecord"
 90
        1
280
     0
281
     0
  0
CLASS
  1
LAYOUT
  2
AcDbLayout
  3
AutoCAD 2000
 90
        0
280
     0
281
     0
  0
CLASS
  1
PLOTSETTINGS
  2
AcDbPlotSettings
  3
AutoCAD 2000
 90
        0
280
     0
281
     0
  0
CLASS
  1
ACDBDICTIONARYWDFLT
  2
AcDbDictionaryWithDefault
  3
AutoCAD 2000
 90
        0
280
     0
281
     0
  0
CLASS
  1
ACDBPLACEHOLDER
  2
AcDbPlaceHolder
  3
AutoCAD 2000
 90
        0
280
     0
281
     0
  0
CLASS
  1
VBA_PROJECT
  2
AcDbVbaProject
  3
acadvba
 90
        0
280
     0
281
     0
  0
CLASS
  1
WIPEOUT
  2
AcDbWipeout
  3
WipeOut|AutoCAD Express Tool|expresstools@autodesk.com
 90
      127
280
     0
281
     1
  0
CLASS
  1
WIPEOUTVARIABLES
  2
AcDbWipeoutVariables
  3
WipeOut|AutoCAD Express Tool|expresstools@autodesk.com
 90
        0
280
     0
281
     0
  0
CLASS
  1
RTEXT
  2
RText
  3
RText|AutoCAD Express Tool|expresstools@autodesk.com
 90
        0
280
     0
281
     1
  0
CLASS
  1
ARCALIGNEDTEXT
  2
AcDbArcAlignedText
  3
ATEXT|AutoCAD Express Tool|expresstools@autodesk.com
 90
        0
280
     0
281
     1
  0
ENDSEC
  0
SECTION
  2
TABLES
  0
TABLE
  2
VPORT
  5
7
100
AcDbSymbolTable
 70
     1
  0
VPORT
  5
15
100
AcDbSymbolTableRecord
100
AcDbViewportTableRecord
  2
*ACTIVE
 70
     0
 10
0.0
 20
0.0
 11
1.0
 21
1.0
 12
146.242218
 22
144.000015
 13
0.0
 23
0.0
 14
1.0
 24
1.0
 15
0.0
 25
0.0
 16
0.0
 26
0.0
 36
1.0
 17
0.0
 27
0.0
 37
0.0
 40
1065.999969
 41
0.688564
 42
50.0
 43
0.0
 44
0.0
 50
0.0
 51
0.0
 71
     0
 72
   100
 73
     1
 74
     1
 75
     0
 76
     0
 77
     0
 78
     0
281
     0
 65
     0
110
0.0
120
0.0
130
0.0
111
1.0
121
0.0
131
0.0
112
0.0
122
1.0
132
0.0
345
0
346
0
 79
     0
146
0.0
  0
ENDTAB
  0
TABLE
  2
LTYPE
  5
4
100
AcDbSymbolTable
 70
     7
  0
LTYPE
  5
11
100
AcDbSymbolTableRecord
100
AcDbLinetypeTableRecord
  2
ByBlock
 70
    64
  3

 72
    65
 73
     0
 40
0.0
  0
LTYPE
  5
12
100
AcDbSymbolTableRecord
100
AcDbLinetypeTableRecord
  2
ByLayer
 70
    64
  3

 72
    65
 73
     0
 40
0.0
  0
LTYPE
  5
13
100
AcDbSymbolTableRecord
100
AcDbLinetypeTableRecord
  2
Continuous
 70
    64
  3
Solid line
 72
    65
 73
     0
 40
0.0
  0
LTYPE
  5
24
100
AcDbSymbolTableRecord
100
AcDbLinetypeTableRecord
  2
DASHED
 70
    64
  3
Dashed __ __ __
 72
    65
 73
     2
 40
135.0
 49
67.5
 74
     0
 49
-67.5
 74
     0
  0
LTYPE
  5
25
100
AcDbSymbolTableRecord
100
AcDbLinetypeTableRecord
  2
DOT
 70
    64
  3
Dot . . . .
 72
    65
 73
     2
 40
102.5
 49
17.5
 74
     0
 49
-85.0
 74
     0
  0
LTYPE
  5
26
100
AcDbSymbolTableRecord
100
AcDbLinetypeTableRecord
  2
DASHDOT
 70
    64
  3
Dash dot __ . __ .
 72
    65
 73
     4
 40
852.5
 49
680.0
 74
     0
 49
-77.5
 74
     0
 49
17.5
 74
     0
 49
-77.5
 74
     0
  0
LTYPE
  5
27
100
AcDbSymbolTableRecord
100
AcDbLinetypeTableRecord
  2
DIVIDE
 70
    64
  3
Divide __ . . __ . .
 72
    65
 73
     6
 40
855.0
 49
587.5
 74
     0
 49
-77.5
 74
     0
 49
17.5
 74
     0
 49
-77.5
 74
     0
 49
17.5
 74
     0
 49
-77.5
 74
     0
  0
ENDTAB
  0
TABLE
  2
LAYER
  5
2
100
AcDbSymbolTable
 70
     8
  0
LAYER
  5
14
100
AcDbSymbolTableRecord
100
AcDbLayerTableRecord
  2
0
 70
     0
 62
     7
  6
Continuous
290
     1
370
    -3
390
1D
  0
LAYER
  5
2C
100
AcDbSymbolTableRecord
100
AcDbLayerTableRecord
  2
LAYER98
 70
     0
 62
     7
  6
Continuous
290
     1
370
    -3
390
1D
  0
LAYER
  5
30
100
AcDbSymbolTableRecord
100
AcDbLayerTableRecord
  2
HATCH_REACTORS
 70
     0
 62
    -7
  6
Continuous
290
     1
370
    -3
390
1D
  0
LAYER
  5
32
100
AcDbSymbolTableRecord
100
AcDbLayerTableRecord
  2
LAYER111
 70
     0
 62
     7
  6
Continuous
290
     1
370
    -3
390
1D
  0
LAYER
  5
36
100
AcDbSymbolTableRecord
100
AcDbLayerTableRecord
  2
LAYER01
 70
     0
 62
   213
  6
Continuous
290
     1
370
    -3
390
1D
  0
LAYER
  5
1F1
100
AcDbSymbolTableRecord
100
AcDbLayerTableRecord
  2
LAYER21
 70
     0
 62
   213
  6
Continuous
290
     1
370
    -3
390
1D
  0
LAYER
  5
45F
100
AcDbSymbolTableRecord
100
AcDbLayerTableRecord
  2
LAYER127
 70
     0
 62
     7
  6
Continuous
290
     1
370
    -3
390
1D
  0
LAYER
  5
46F
100
AcDbSymbolTableRecord
100
AcDbLayerTableRecord
  2
LAYER49
 70
     0
 62
   213
  6
Continuous
290
     1
370
    -3
390
1D
  0
ENDTAB
  0
TABLE
  2
STYLE
  5
3
100
AcDbSymbolTable
 70
     1
  0
STYLE
  5
17
100
AcDbSymbolTableRecord
100
AcDbTextStyleTableRecord
  2
Standard
 70
     0
 40
0.0
 41
1.0
 50
0.0
 71
     0
 42
0.0
  3
txt
  4

  0
ENDTAB
  0
TABLE
  2
VIEW
  5
5
100
AcDbSymbolTable
 70
     0
  0
ENDTAB
  0
TABLE
  2
UCS
  5
6
100
AcDbSymbolTable
 70
     0
  0
ENDTAB
  0
TABLE
  2
APPID
  5
8
100
AcDbSymbolTable
 70
     1
  0
APPID
  5
16
100
AcDbSymbolTableRecord
100
AcDbRegAppTableRecord
  2
ACAD
 70
     0
  0
ENDTAB
  0
TABLE
  2
DIMSTYLE
  5
9
100
AcDbSymbolTable
 70
     1
100
AcDbDimStyleTable
 71
     0
  0
DIMSTYLE
105
18
100
AcDbSymbolTableRecord
100
AcDbDimStyleTableRecord
  2
Standard
 70
     0
  3

  4

 40
1.0
 41
0.18
 42
0.0625
 43
0.38
 44
0.18
 45
0.0
 46
0.0
 47
0.0
 48
0.0
 71
     0
 72
     0
 73
     1
 74
     1
 75
     0
 76
     0
 77
     0
 78
     0
 79
     0
140
0.18
141
0.09
142
0.0
143
25.4
144
1.0
145
0.0
146
1.0
147
0.09
148
0.0
170
     0
171
     2
172
     0
173
     0
174
     0
175
     0
176
     0
177
     0
178
     0
179
     0
271
     4
272
     4
273
     2
274
     2
275
     0
276
     0
277
     2
278
    46
279
     0
280
     0
281
     0
282
     0
283
     1
284
     0
285
     0
286
     0
288
     0
289
     3
340
17
341
0
342
0
343
0
344
0
371
    -2
372
    -2
  0
ENDTAB
  0
TABLE
  2
BLOCK_RECORD
  5
1
100
AcDbSymbolTable
 70
    19
  0
BLOCK_RECORD
  5
A
100
AcDbSymbolTableRecord
100
AcDbBlockTableRecord
  2
*MODEL_SPACE
340
20
  0
BLOCK_RECORD
  5
B
100
AcDbSymbolTableRecord
100
AcDbBlockTableRecord
  2
*PAPER_SPACE
340
21
  0
BLOCK_RECORD
  5
29
100
AcDbSymbolTableRecord
100
AcDbBlockTableRecord
  2
DET-DUI2_79
340
0
102
{BLKREFS
331
47E
102
}
  0
BLOCK_RECORD
  5
2D
100
AcDbSymbolTableRecord
100
AcDbBlockTableRecord
  2
2-551____U_79
340
0
102
{BLKREFS
331
47C
102
}
  0
BLOCK_RECORD
  5
33
100
AcDbSymbolTableRecord
100
AcDbBlockTableRecord
  2
HATCH--E_U_79
340
0
102
{BLKREFS
331
89
102
}
  0
BLOCK_RECORD
  5
8A
100
AcDbSymbolTableRecord
100
AcDbBlockTableRecord
  2
HATCH--F_U_79
340
0
102
{BLKREFS
331
1E3
102
}
  0
BLOCK_RECORD
  5
1E7
100
AcDbSymbolTableRecord
100
AcDbBlockTableRecord
  2
X80_F_US_U_M_79
340
0
102
{BLKREFS
331
1FD
102
}
  0
BLOCK_RECORD
  5
1EE
100
AcDbSymbolTableRecord
100
AcDbBlockTableRecord
  2
2--C2EV-CI_U_M_79
340
0
102
{BLKREFS
331
1FB
102
}
  0
BLOCK_RECORD
  5
201
100
AcDbSymbolTableRecord
100
AcDbBlockTableRecord
  2
HATCH--G_U_79
340
0
102
{BLKREFS
331
249
102
}
  0
BLOCK_RECORD
  5
259
100
AcDbSymbolTableRecord
100
AcDbBlockTableRecord
  2
1_115_FV_U_79
340
0
102
{BLKREFS
331
2B7
102
}
  0
BLOCK_RECORD
  5
281
100
AcDbSymbolTableRecord
100
AcDbBlockTableRecord
  2
HATCH--I_U_79
340
0
102
{BLKREFS
331
29E
102
}
  0
BLOCK_RECORD
  5
2B8
100
AcDbSymbolTableRecord
100
AcDbBlockTableRecord
  2
N7976_TV_U_79
340
0
102
{BLKREFS
331
2BD
102
}
  0
BLOCK_RECORD
  5
2BF
100
AcDbSymbolTableRecord
100
AcDbBlockTableRecord
  2
N7976_TV_U_792
340
0
102
{BLKREFS
331
2C4
102
}
  0
BLOCK_RECORD
  5
2C5
100
AcDbSymbolTableRecord
100
AcDbBlockTableRecord
  2
_D---ABU_U_79
340
0
102
{BLKREFS
331
2D1
102
}
  0
BLOCK_RECORD
  5
446
100
AcDbSymbolTableRecord
100
AcDbBlockTableRecord
  2
_D---ACV_U_79
340
0
102
{BLKREFS
331
455
102
}
  0
BLOCK_RECORD
  5
44F
100
AcDbSymbolTableRecord
100
AcDbBlockTableRecord
  2
IT5E11___U_79
340
0
102
{BLKREFS
331
453
102
}
  0
BLOCK_RECORD
  5
457
100
AcDbSymbolTableRecord
100
AcDbBlockTableRecord
  2
T-ROCKP__U_M_79
340
0
102
{BLKREFS
331
45B
102
}
  0
BLOCK_RECORD
  5
45C
100
AcDbSymbolTableRecord
100
AcDbBlockTableRecord
  2
T-VENPRF_U_M_79
340
0
102
{BLKREFS
331
461
102
}
  0
BLOCK_RECORD
  5
462
100
AcDbSymbolTableRecord
100
AcDbBlockTableRecord
  2
T-ACHTER_U_79
340
0
102
{BLKREFS
331
467
102
}
  0
BLOCK_RECORD
  5
468
100
AcDbSymbolTableRecord
100
AcDbBlockTableRecord
  2
T-VENTIL_U_79
340
0
102
{BLKREFS
331
46C
102
}
  0
BLOCK_RECORD
  5
481
100
AcDbSymbolTableRecord
100
AcDbBlockTableRecord
  2
KLPL2_A4_U_0
340
0
102
{BLKREFS
331
48D
102
}
  0
ENDTAB
  0
ENDSEC
  0
SECTION
  2
BLOCKS
  0
BLOCK
  5
D
100
AcDbEntity
  8
0
390
0
100
AcDbBlockBegin
  2
*MODEL_SPACE
 70
     0
 10
0.0
 20
0.0
 30
0.0
  3
*MODEL_SPACE
  1

  0
ENDBLK
  5
E
100
AcDbEntity
  8
0
390
0
100
AcDbBlockEnd
  0
BLOCK
  5
F
100
AcDbEntity
 67
     1
  8
0
390
0
100
AcDbBlockBegin
  2
*PAPER_SPACE
 70
     0
 10
0.0
 20
0.0
 30
0.0
  3
*PAPER_SPACE
  1

  0
ENDBLK
  5
10
100
AcDbEntity
 67
     1
  8
0
390
0
100
AcDbBlockEnd
  0
BLOCK
  5
2A
100
AcDbEntity
  8
0
390
0
100
AcDbBlockBegin
  2
DET-DUI2_79
 70
     0
 10
0.0
 20
0.0
 30
0.0
  3
DET-DUI2_79
  1

  0
LWPOLYLINE
  5
2B
100
AcDbEntity
  8
LAYER98
370
     0
390
0
  6
DASHED
 62
     7
100
AcDbPolyline
 90
        4
 70
     1
 10
-1836.758789
 20
-5760.183105
 10
-1836.758789
 20
-5380.183105
 10
-1343.158691
 20
-5380.183105
 10
-1343.158691
 20
-5760.183105
  0
INSERT
  5
47C
100
AcDbEntity
  8
LAYER98
390
0
100
AcDbBlockReference
  2
2-551____U_79
 10
-1419.484497
 20
-5369.042969
 30
0.0
 50
90.0
  0
ENDBLK
  5
47D
100
AcDbEntity
  8
0
390
0
100
AcDbBlockEnd
  0
BLOCK
  5
2E
100
AcDbEntity
  8
0
390
0
100
AcDbBlockBegin
  2
2-551____U_79
 70
     0
 10
0.0
 20
0.0
 30
0.0
  3
2-551____U_79
  1

  0
LWPOLYLINE
  5
2F
102
{ACAD_REACTORS
330
31
102
}
100
AcDbEntity
  8
HATCH_REACTORS
390
0
100
AcDbPolyline
 90
        4
 70
     1
 10
-11.140137
 20
-0.000122
 10
-130.0
 20
-0.000122
 10
-130.0
 20
366.45813
 10
-11.140137
 20
366.45813
  0
HATCH
  5
31
100
AcDbEntity
  8
LAYER111
370
     5
390
0
  6
Continuous
 62
   253
100
AcDbHatch
 10
0.0
 20
0.0
 30
0.0
210
0.0
220
0.0
230
1.0
  2
_CC7C1+B-1
 70
     1
 71
     1
 91
        1
 92
        2
 72
     0
 73
     1
 93
        4
 10
-11.14013671875
 20
-0.0001220703125
 10
-130.0
 20
-0.0001220703125
 10
-130.0
 20
366.4581298828125
 10
-11.14013671875
 20
366.4581298828125
 97
        1
330
2F
 75
     0
 76
     0
 98
        0
  0
INSERT
  5
89
100
AcDbEntity
  8
LAYER01
390
0
100
AcDbBlockReference
  2
HATCH--E_U_79
 10
-1556.728027
 20
-836.988647
 30
0.0
  0
INSERT
  5
1E3
100
AcDbEntity
  8
LAYER01
390
0
100
AcDbBlockReference
  2
HATCH--F_U_79
 10
-1556.728027
 20
-836.988647
 30
0.0
  0
LWPOLYLINE
  5
1E4
100
AcDbEntity
  8
LAYER01
370
    35
390
0
  6
Continuous
 62
   134
100
AcDbPolyline
 90
        4
 70
     1
 10
-135.0
 20
171.872192
 10
-135.0
 20
261.872192
 10
-130.0
 20
261.872192
 10
-130.0
 20
171.872192
  0
LWPOLYLINE
  5
1E5
100
AcDbEntity
  8
LAYER01
370
    18
390
0
  6
DASHED
 62
     7
100
AcDbPolyline
 90
        2
 70
     0
 10
-135.0
 20
222.872192
 10
-130.0
 20
222.872192
  0
LWPOLYLINE
  5
1E6
100
AcDbEntity
  8
LAYER01
370
    18
390
0
  6
DASHED
 62
     7
100
AcDbPolyline
 90
        2
 70
     0
 10
-135.0
 20
210.872192
 10
-130.0
 20
210.872192
  0
INSERT
  5
1FD
100
AcDbEntity
  8
LAYER01
390
0
100
AcDbBlockReference
  2
X80_F_US_U_M_79
 10
-141.0
 20
216.872314
 30
0.0
 50
180.0
  0
LWPOLYLINE
  5
1FE
100
AcDbEntity
  8
LAYER01
370
    35
390
0
  6
Continuous
 62
   134
100
AcDbPolyline
 90
        4
 70
     1
 10
-141.0
 20
204.872192
 10
-141.0
 20
228.872192
 10
-139.0
 20
228.872192
 10
-139.0
 20
204.872192
  0
LWPOLYLINE
  5
1FF
100
AcDbEntity
  8
LAYER01
370
    25
390
0
  6
Continuous
 62
    92
100
AcDbPolyline
 90
        2
 70
     0
 10
-130.0
 20
171.872192
 10
-135.0
 20
261.872192
  0
LWPOLYLINE
  5
200
100
AcDbEntity
  8
LAYER01
370
    25
390
0
  6
Continuous
 62
    92
100
AcDbPolyline
 90
        2
 70
     0
 10
-130.0
 20
261.872192
 10
-135.0
 20
171.872192
  0
INSERT
  5
249
100
AcDbEntity
  8
LAYER01
390
0
100
AcDbBlockReference
  2
HATCH--G_U_79
 10
-1556.728027
 20
-836.988647
 30
0.0
  0
LWPOLYLINE
  5
24A
100
AcDbEntity
  8
LAYER01
370
    35
390
0
  6
Continuous
 62
   134
100
AcDbPolyline
 90
        2
 70
     0
 10
-130.0
 20
-0.000122
 10
-130.0
 20
366.45813
  0
LWPOLYLINE
  5
24B
100
AcDbEntity
  8
LAYER01
370
    35
390
0
  6
Continuous
 62
   134
100
AcDbPolyline
 90
        2
 70
     0
 10
-131.0
 20
72.097534
 10
-131.0
 20
116.097534
  0
LWPOLYLINE
  5
24C
100
AcDbEntity
  8
LAYER01
370
    35
390
0
  6
Continuous
 62
   134
100
AcDbPolyline
 90
        2
 70
     0
 10
-135.0
 20
-0.000122
 10
-135.0
 20
71.097534
  0
LWPOLYLINE
  5
24D
100
AcDbEntity
  8
LAYER01
370
    25
390
0
  6
Continuous
 62
    92
100
AcDbPolyline
 90
        2
 70
     0
 10
-230.0
 20
73.097534
 10
-230.0
 20
171.872192
  0
LWPOLYLINE
  5
24E
100
AcDbEntity
  8
LAYER01
370
    25
390
0
  6
Continuous
 62
    92
100
AcDbPolyline
 90
        4
 70
     0
 10
-130.00293
 20
261.872192
 42
0.487137
 10
-148.317383
 20
276.79187
 10
-211.182617
 20
262.535034
 42
-1.252166
 10
-211.182617
 20
291.792114
  0
LWPOLYLINE
  5
24F
100
AcDbEntity
  8
LAYER01
370
    25
390
0
  6
Continuous
 62
    92
100
AcDbPolyline
 90
        5
 70
     0
 10
-211.182617
 20
291.792114
 10
-148.317383
 20
277.535034
 42
1.252166
 10
-148.317383
 20
306.792114
 10
-211.182617
 20
292.535034
 42
-1.252166
 10
-211.182617
 20
321.792114
  0
LWPOLYLINE
  5
250
100
AcDbEntity
  8
LAYER01
370
    25
390
0
  6
Continuous
 62
    92
100
AcDbPolyline
 90
        2
 70
     0
 10
-230.0
 20
366.45813
 10
-230.0
 20
261.872192
  0
LWPOLYLINE
  5
251
100
AcDbEntity
  8
LAYER01
370
    35
390
0
  6
Continuous
 62
   134
100
AcDbPolyline
 90
        2
 70
     0
 10
-200.0
 20
366.45813
 10
-200.0
 20
261.872192
  0
LWPOLYLINE
  5
252
100
AcDbEntity
  8
LAYER01
370
    18
390
0
  6
DASHED
 62
     7
100
AcDbPolyline
 90
        2
 70
     0
 10
-200.0
 20
261.872192
 10
-200.0
 20
171.872192
  0
LWPOLYLINE
  5
253
100
AcDbEntity
  8
LAYER01
370
    35
390
0
  6
Continuous
 62
   134
100
AcDbPolyline
 90
        2
 70
     0
 10
-200.0
 20
171.872192
 10
-200.0
 20
78.703491
  0
LWPOLYLINE
  5
254
100
AcDbEntity
  8
LAYER01
370
    35
390
0
  6
Continuous
 62
   134
100
AcDbPolyline
 90
        2
 70
     0
 10
-258.399902
 20
366.45813
 10
-258.399902
 20
78.703491
  0
LWPOLYLINE
  5
255
100
AcDbEntity
  8
LAYER01
370
    35
390
0
  6
Continuous
 62
   134
100
AcDbPolyline
 90
        2
 70
     0
 10
-260.0
 20
309.853149
 10
-260.0
 20
78.703491
  0
LWPOLYLINE
  5
256
100
AcDbEntity
  8
LAYER01
370
    25
390
0
  6
Continuous
 62
    92
100
AcDbPolyline
 90
        4
 70
     0
 10
-130.00293
 20
171.872192
 42
-0.487137
 10
-148.317383
 20
156.952515
 10
-211.182617
 20
171.209595
 42
1.252166
 10
-211.182617
 20
141.952515
  0
LWPOLYLINE
  5
257
100
AcDbEntity
  8
LAYER01
370
    25
390
0
  6
Continuous
 62
    92
100
AcDbPolyline
 90
        3
 70
     0
 10
-211.182617
 20
141.952515
 10
-148.317383
 20
156.209595
 42
-1.108971
 10
-144.752441
 20
126.58313
  0
LWPOLYLINE
  5
258
100
AcDbEntity
  8
LAYER01
370
    25
390
0
  6
Continuous
 62
    92
100
AcDbPolyline
 90
        3
 70
     0
 10
-145.0
 20
126.580933
 10
-211.182617
 20
141.209595
 42
1.252166
 10
-211.182617
 20
111.952515
  0
INSERT
  5
2B7
100
AcDbEntity
  8
LAYER01
390
0
100
AcDbBlockReference
  2
1_115_FV_U_79
 10
-135.0
 20
216.872314
 30
0.0
 50
180.0
  0
INSERT
  5
2BD
100
AcDbEntity
  8
LAYER01
390
0
100
AcDbBlockReference
  2
N7976_TV_U_79
 10
-240.0
 20
235.872314
 30
0.0
 50
180.0
  0
LWPOLYLINE
  5
2BE
100
AcDbEntity
  8
LAYER01
370
    35
390
0
  6
Continuous
 62
   134
100
AcDbPolyline
 90
        2
 70
     0
 10
-200.0
 20
221.872192
 10
-200.0
 20
211.872192
  0
INSERT
  5
2C4
100
AcDbEntity
  8
LAYER01
390
0
100
AcDbBlockReference
  2
N7976_TV_U_792
 10
-240.0
 20
197.872314
 30
0.0
 50
180.0
  0
INSERT
  5
2D1
100
AcDbEntity
  8
LAYER01
390
0
100
AcDbBlockReference
  2
_D---ABU_U_79
 10
-1556.728027
 20
-836.988647
 30
0.0
  0
LWPOLYLINE
  5
2D2
100
AcDbEntity
  8
LAYER01
370
    18
390
0
  6
Continuous
 62
     7
100
AcDbPolyline
 90
        2
 70
     0
 10
-243.652344
 20
359.159058
 10
-243.652344
 20
290.297485
  0
LWPOLYLINE
  5
2D3
100
AcDbEntity
  8
LAYER01
370
    18
390
0
  6
Continuous
 62
     7
100
AcDbPolyline
 90
        2
 70
     0
 10
-243.652344
 20
366.368774
 10
-245.982422
 20
359.159058
  0
LWPOLYLINE
  5
2D4
100
AcDbEntity
  8
LAYER01
370
    18
390
0
  6
Continuous
 62
     7
100
AcDbPolyline
 90
        2
 70
     0
 10
-245.982422
 20
359.159058
 10
-241.322266
 20
359.159058
  0
LWPOLYLINE
  5
2D5
100
AcDbEntity
  8
LAYER01
370
    18
390
0
  6
Continuous
 62
     7
100
AcDbPolyline
 90
        2
 70
     0
 10
-243.652344
 20
366.368774
 10
-241.322266
 20
359.159058
  0
LWPOLYLINE
  5
2D6
100
AcDbEntity
  8
LAYER01
370
    35
390
0
  6
Continuous
 62
   134
100
AcDbPolyline
 90
        2
 70
     0
 10
-260.0
 20
78.703491
 10
-200.0
 20
78.703491
  0
LWPOLYLINE
  5
2D7
100
AcDbEntity
  8
LAYER01
370
    35
390
0
  6
Continuous
 62
   134
100
AcDbPolyline
 90
        2
 70
     0
 10
-257.04248
 20
73.097534
 10
-178.445313
 20
73.097534
  0
LWPOLYLINE
  5
2D8
100
AcDbEntity
  8
LAYER01
370
    13
390
0
  6
Continuous
 62
   213
100
AcDbPolyline
 90
        2
 70
     0
 10
-257.04248
 20
73.097534
 42
0.388879
 10
-258.038574
 20
72.184692
  0
LWPOLYLINE
  5
2D9
100
AcDbEntity
  8
LAYER01
370
    35
390
0
  6
Continuous
 62
   134
100
AcDbPolyline
 90
        2
 70
     0
 10
-257.04248
 20
72.097534
 10
-178.445313
 20
72.097534
  0
LWPOLYLINE
  5
2DA
100
AcDbEntity
  8
LAYER01
370
    35
390
0
  6
Continuous
 62
   134
100
AcDbPolyline
 90
        2
 70
     0
 10
-220.0
 20
71.097534
 10
-220.0
 20
-0.000122
  0
LWPOLYLINE
  5
2DB
100
AcDbEntity
  8
LAYER01
370
    35
390
0
  6
Continuous
 62
   134
100
AcDbPolyline
 90
        2
 70
     0
 10
-215.0
 20
71.097534
 10
-215.0
 20
-0.000122
  0
LWPOLYLINE
  5
2DC
100
AcDbEntity
  8
LAYER01
370
    35
390
0
  6
Continuous
 62
   134
100
AcDbPolyline
 90
        2
 70
     0
 10
-257.04248
 20
72.097534
 10
-258.260742
 20
63.174927
  0
LWPOLYLINE
  5
2DD
102
{ACAD_REACTORS
330
2DE
102
}
100
AcDbEntity
  8
HATCH_REACTORS
390
0
100
AcDbPolyline
 90
        4
 70
     1
 10
-257.04248
 20
72.247681
 10
-257.04248
 20
72.947632
 10
-178.445313
 20
72.947632
 10
-178.445313
 20
72.247681
  0
HATCH
  5
2DE
100
AcDbEntity
  8
LAYER01
370
     5
390
0
  6
Continuous
 62
     7
100
AcDbHatch
 10
0.0
 20
0.0
 30
0.0
210
0.0
220
0.0
230
1.0
  2
_L-O---1
 70
     1
 71
     1
 91
        1
 92
        2
 72
     0
 73
     1
 93
        4
 10
-257.04248046875
 20
72.2476806640625
 10
-257.04248046875
 20
72.9476318359375
 10
-178.4453125
 20
72.9476318359375
 10
-178.4453125
 20
72.2476806640625
 97
        1
330
2DD
 75
     0
 76
     0
 98
        0
  0
LWPOLYLINE
  5
2DF
102
{ACAD_REACTORS
330
2E0
102
}
100
AcDbEntity
  8
HATCH_REACTORS
390
0
100
AcDbPolyline
 90
        4
 70
     1
 10
-257.050781
 20
72.247437
 10
-257.089355
 20
72.946411
 10
-257.04248
 20
72.947632
 10
-257.04248
 20
72.247681
  0
HATCH
  5
2E0
100
AcDbEntity
  8
LAYER01
370
     5
390
0
  6
Continuous
 62
     7
100
AcDbHatch
 10
0.0
 20
0.0
 30
0.0
210
0.0
220
0.0
230
1.0
  2
_L-O---1
 70
     1
 71
     1
 91
        1
 92
        2
 72
     0
 73
     1
 93
        2
 10
-257.05078125
 20
72.2474365234375
 10
-257.04248046875
 20
72.9476318359375
 97
        1
330
2DF
 75
     0
 76
     0
 98
        0
  0
LWPOLYLINE
  5
2E1
102
{ACAD_REACTORS
330
2E2
102
}
100
AcDbEntity
  8
HATCH_REACTORS
390
0
100
AcDbPolyline
 90
        4
 70
     1
 10
-257.059082
 20
72.246704
 10
-257.135742
 20
72.942505
 10
-257.089355
 20
72.946411
 10
-257.050781
 20
72.247437
  0
HATCH
  5
2E2
100
AcDbEntity
  8
LAYER01
370
     5
390
0
  6
Continuous
 62
     7
100
AcDbHatch
 10
0.0
 20
0.0
 30
0.0
210
0.0
220
0.0
230
1.0
  2
_L-O---1
 70
     1
 71
     1
 91
        1
 92
        2
 72
     0
 73
     1
 93
        2
 10
-257.05908203125
 20
72.2467041015625
 10
-257.08935546875
 20
72.9464111328125
 97
        1
330
2E1
 75
     0
 76
     0
 98
        0
  0
LWPOLYLINE
  5
2E3
102
{ACAD_REACTORS
330
2E4
102
}
100
AcDbEntity
  8
HATCH_REACTORS
390
0
100
AcDbPolyline
 90
        4
 70
     1
 10
-257.067383
 20
72.245728
 10
-257.182129
 20
72.936157
 10
-257.135742
 20
72.942505
 10
-257.059082
 20
72.246704
  0
HATCH
  5
2E4
100
AcDbEntity
  8
LAYER01
370
     5
390
0
  6
Continuous
 62
     7
100
AcDbHatch
 10
0.0
 20
0.0
 30
0.0
210
0.0
220
0.0
230
1.0
  2
_L-O---1
 70
     1
 71
     1
 91
        1
 92
        2
 72
     0
 73
     1
 93
        2
 10
-257.0673828125
 20
72.2457275390625
 10
-257.1357421875
 20
72.9425048828125
 97
        1
330
2E3
 75
     0
 76
     0
 98
        0
  0
LWPOLYLINE
  5
2E5
102
{ACAD_REACTORS
330
2E6
102
}
100
AcDbEntity
  8
HATCH_REACTORS
390
0
100
AcDbPolyline
 90
        4
 70
     1
 10
-257.075195
 20
72.244019
 10
-257.228027
 20
72.927124
 10
-257.182129
 20
72.936157
 10
-257.067383
 20
72.245728
  0
HATCH
  5
2E6
100
AcDbEntity
  8
LAYER01
370
     5
390
0
  6
Continuous
 62
     7
100
AcDbHatch
 10
0.0
 20
0.0
 30
0.0
210
0.0
220
0.0
230
1.0
  2
_L-O---1
 70
     1
 71
     1
 91
        1
 92
        2
 72
     0
 73
     1
 93
        2
 10
-257.0751953125
 20
72.2440185546875
 10
-257.18212890625
 20
72.9361572265625
 97
        1
330
2E5
 75
     0
 76
     0
 98
        0
  0
LWPOLYLINE
  5
2E7
102
{ACAD_REACTORS
330
2E8
102
}
100
AcDbEntity
  8
HATCH_REACTORS
390
0
100
AcDbPolyline
 90
        4
 70
     1
 10
-257.083008
 20
72.242065
 10
-257.272949
 20
72.915649
 10
-257.228027
 20
72.927124
 10
-257.075195
 20
72.244019
  0
HATCH
  5
2E8
100
AcDbEntity
  8
LAYER01
370
     5
390
0
  6
Continuous
 62
     7
100
AcDbHatch
 10
0.0
 20
0.0
 30
0.0
210
0.0
220
0.0
230
1.0
  2
_L-O---1
 70
     1
 71
     1
 91
        1
 92
        2
 72
     0
 73
     1
 93
        2
 10
-257.0830078125
 20
72.2420654296875
 10
-257.22802734375
 20
72.9271240234375
 97
        1
330
2E7
 75
     0
 76
     0
 98
        0
  0
LWPOLYLINE
  5
2E9
102
{ACAD_REACTORS
330
2EA
102
}
100
AcDbEntity
  8
HATCH_REACTORS
390
0
100
AcDbPolyline
 90
        4
 70
     1
 10
-257.091309
 20
72.239624
 10
-257.317871
 20
72.901978
 10
-257.272949
 20
72.915649
 10
-257.083008
 20
72.242065
  0
HATCH
  5
2EA
100
AcDbEntity
  8
LAYER01
370
     5
390
0
  6
Continuous
 62
     7
100
AcDbHatch
 10
0.0
 20
0.0
 30
0.0
210
0.0
220
0.0
230
1.0
  2
_L-O---1
 70
     1
 71
     1
 91
        1
 92
        2
 72
     0
 73
     1
 93
        2
 10
-257.09130859375
 20
72.2396240234375
 10
-257.27294921875
 20
72.9156494140625
 97
        1
330
2E9
 75
     0
 76
     0
 98
        0
  0
LWPOLYLINE
  5
2EB
102
{ACAD_REACTORS
330
2EC
102
}
100
AcDbEntity
  8
HATCH_REACTORS
390
0
100
AcDbPolyline
 90
        4
 70
     1
 10
-257.098633
 20
72.236694
 10
-257.361328
 20
72.88562
 10
-257.317871
 20
72.901978
 10
-257.091309
 20
72.239624
  0
HATCH
  5
2EC
100
AcDbEntity
  8
LAYER01
370
     5
390
0
  6
Continuous
 62
     7
100
AcDbHatch
 10
0.0
 20
0.0
 30
0.0
210
0.0
220
0.0
230
1.0
  2
_L-O---1
 70
     1
 71
     1
 91
        1
 92
        2
 72
     0
 73
     1
 93
        2
 10
-257.0986328125
 20
72.2366943359375
 10
-257.31787109375
 20
72.9019775390625
 97
        1
330
2EB
 75
     0
 76
     0
 98
        0
  0
LWPOLYLINE
  5
2ED
102
{ACAD_REACTORS
330
2EE
102
}
100
AcDbEntity
  8
HATCH_REACTORS
390
0
100
AcDbPolyline
 90
        4
 70
     1
 10
-257.106445
 20
72.233276
 10
-257.404297
 20
72.866821
 10
-257.361328
 20
72.88562
 10
-257.098633
 20
72.236694
  0
HATCH
  5
2EE
100
AcDbEntity
  8
LAYER01
370
     5
390
0
  6
Continuous
 62
     7
100
AcDbHatch
 10
0.0
 20
0.0
 30
0.0
210
0.0
220
0.0
230
1.0
  2
_L-O---1
 70
     1
 71
     1
 91
        1
 92
        2
 72
     0
 73
     1
 93
        2
 10
-257.1064453125
 20
72.2332763671875
 10
-257.361328125
 20
72.8856201171875
 97
        1
330
2ED
 75
     0
 76
     0
 98
        0
  0
LWPOLYLINE
  5
2EF
102
{ACAD_REACTORS
330
2F0
102
}
100
AcDbEntity
  8
HATCH_REACTORS
390
0
100
AcDbPolyline
 90
        4
 70
     1
 10
-257.11377
 20
72.229614
 10
-257.445801
 20
72.845825
 10
-257.404297
 20
72.866821
 10
-257.106445
 20
72.233276
  0
HATCH
  5
2F0
100
AcDbEntity
  8
LAYER01
370
     5
390
0
  6
Continuous
 62
     7
100
AcDbHatch
 10
0.0
 20
0.0
 30
0.0
210
0.0
220
0.0
230
1.0
  2
_L-O---1
 70
     1
 71
     1
 91
        1
 92
        2
 72
     0
 73
     1
 93
        2
 10
-257.11376953125
 20
72.2296142578125
 10
-257.404296875
 20
72.8668212890625
 97
        1
330
2EF
 75
     0
 76
     0
 98
        0
  0
LWPOLYLINE
  5
2F1
102
{ACAD_REACTORS
330
2F2
102
}
100
AcDbEntity
  8
HATCH_REACTORS
390
0
100
AcDbPolyline
 90
        4
 70
     1
 10
-257.121094
 20
72.225464
 10
-257.486328
 20
72.822632
 10
-257.445801
 20
72.845825
 10
-257.11377
 20
72.229614
  0
HATCH
  5
2F2
100
AcDbEntity
  8
LAYER01
370
     5
390
0
  6
Continuous
 62
     7
100
AcDbHatch
 10
0.0
 20
0.0
 30
0.0
210
0.0
220
0.0
230
1.0
  2
_L-O---1
 70
     1
 71
     1
 91
        1
 92
        2
 72
     0
 73
     1
 93
        2
 10
-257.12109375
 20
72.2254638671875
 10
-257.44580078125
 20
72.8458251953125
 97
        1
330
2F1
 75
     0
 76
     0
 98
        0
  0
LWPOLYLINE
  5
2F3
102
{ACAD_REACTORS
330
2F4
102
}
100
AcDbEntity
  8
HATCH_REACTORS
390
0
100
AcDbPolyline
 90
        4
 70
     1
 10
-257.12793
 20
72.221069
 10
-257.525391
 20
72.796997
 10
-257.486328
 20
72.822632
 10
-257.121094
 20
72.225464
  0
HATCH
  5
2F4
100
AcDbEntity
  8
LAYER01
370
     5
390
0
  6
Continuous
 62
     7
100
AcDbHatch
 10
0.0
 20
0.0
 30
0.0
210
0.0
220
0.0
230
1.0
  2
_L-O---1
 70
     1
 71
     1
 91
        1
 92
        2
 72
     0
 73
     1
 93
        2
 10
-257.1279296875
 20
72.2210693359375
 10
-257.486328125
 20
72.8226318359375
 97
        1
330
2F3
 75
     0
 76
     0
 98
        0
  0
LWPOLYLINE
  5
2F5
102
{ACAD_REACTORS
330
2F6
102
}
100
AcDbEntity
  8
HATCH_REACTORS
390
0
100
AcDbPolyline
 90
        4
 70
     1
 10
-257.134277
 20
72.216187
 10
-257.563477
 20
72.769409
 10
-257.525391
 20
72.796997
 10
-257.12793
 20
72.221069
  0
HATCH
  5
2F6
100
AcDbEntity
  8
LAYER01
370
     5
390
0
  6
Continuous
 62
     7
100
AcDbHatch
 10
0.0
 20
0.0
 30
0.0
210
0.0
220
0.0
230
1.0
  2
_L-O---1
 70
     1
 71
     1
 91
        1
 92
        2
 72
     0
 73
     1
 93
        2
 10
-257.13427734375
 20
72.2161865234375
 10
-257.525390625
 20
72.7969970703125
 97
        1
330
2F5
 75
     0
 76
     0
 98
        0
  0
LWPOLYLINE
  5
2F7
102
{ACAD_REACTORS
330
2F8
102
}
100
AcDbEntity
  8
HATCH_REACTORS
390
0
100
AcDbPolyline
 90
        4
 70
     1
 10
-257.140625
 20
72.21106
 10
-257.599609
 20
72.739868
 10
-257.563477
 20
72.769409
 10
-257.134277
 20
72.216187
  0
HATCH
  5
2F8
100
AcDbEntity
  8
LAYER01
370
     5
390
0
  6
Continuous
 62
     7
100
AcDbHatch
 10
0.0
 20
0.0
 30
0.0
210
0.0
220
0.0
230
1.0
  2
_L-O---1
 70
     1
 71
     1
 91
        1
 92
        2
 72
     0
 73
     1
 93
        2
 10
-257.140625
 20
72.2110595703125
 10
-257.5634765625
 20
72.7694091796875
 97
        1
330
2F7
 75
     0
 76
     0
 98
        0
  0
LWPOLYLINE
  5
2F9
102
{ACAD_REACTORS
330
2FA
102
}
100
AcDbEntity
  8
HATCH_REACTORS
390
0
100
AcDbPolyline
 90
        4
 70
     1
 10
-257.146973
 20
72.205444
 10
-257.633789
 20
72.708374
 10
-257.599609
 20
72.739868
 10
-257.140625
 20
72.21106
  0
HATCH
  5
2FA
100
AcDbEntity
  8
LAYER01
370
     5
390
0
  6
Continuous
 62
     7
100
AcDbHatch
 10
0.0
 20
0.0
 30
0.0
210
0.0
220
0.0
230
1.0
  2
_L-O---1
 70
     1
 71
     1
 91
        1
 92
        2
 72
     0
 73
     1
 93
        2
 10
-257.14697265625
 20
72.2054443359375
 10
-257.599609375
 20
72.7398681640625
 97
        1
330
2F9
 75
     0
 76
     0
 98
        0
  0
LWPOLYLINE
  5
2FB
102
{ACAD_REACTORS
330
2FC
102
}
100
AcDbEntity
  8
HATCH_REACTORS
390
0
100
AcDbPolyline
 90
        4
 70
     1
 10
-257.152832
 20
72.199585
 10
-257.666504
 20
72.674927
 10
-257.633789
 20
72.708374
 10
-257.146973
 20
72.205444
  0
HATCH
  5
2FC
100
AcDbEntity
  8
LAYER01
370
     5
390
0
  6
Continuous
 62
     7
100
AcDbHatch
 10
0.0
 20
0.0
 30
0.0
210
0.0
220
0.0
230
1.0
  2
_L-O---1
 70
     1
 71
     1
 91
        1
 92
        2
 72
     0
 73
     1
 93
        2
 10
-257.15283203125
 20
72.1995849609375
 10
-257.6337890625
 20
72.7083740234375
 97
        1
330
2FB
 75
     0
 76
     0
 98
        0
  0
LWPOLYLINE
  5
2FD
102
{ACAD_REACTORS
330
2FE
102
}
100
AcDbEntity
  8
HATCH_REACTORS
390
0
100
AcDbPolyline
 90
        4
 70
     1
 10
-257.158203
 20
72.193237
 10
-257.697266
 20
72.639771
 10
-257.666504
 20
72.674927
 10
-257.152832
 20
72.199585
  0
HATCH
  5
2FE
100
AcDbEntity
  8
LAYER01
370
     5
390
0
  6
Continuous
 62
     7
100
AcDbHatch
 10
0.0
 20
0.0
 30
0.0
210
0.0
220
0.0
230
1.0
  2
_L-O---1
 70
     1
 71
     1
 91
        1
 92
        2
 72
     0
 73
     1
 93
        2
 10
-257.158203125
 20
72.1932373046875
 10
-257.66650390625
 20
72.6749267578125
 97
        1
330
2FD
 75
     0
 76
     0
 98
        0
  0
LWPOLYLINE
  5
2FF
102
{ACAD_REACTORS
330
300
102
}
100
AcDbEntity
  8
HATCH_REACTORS
390
0
100
AcDbPolyline
 90
        4
 70
     1
 10
-257.163086
 20
72.18689
 10
-257.726074
 20
72.602905
 10
-257.697266
 20
72.639771
 10
-257.158203
 20
72.193237
  0
HATCH
  5
300
100
AcDbEntity
  8
LAYER01
370
     5
390
0
  6
Continuous
 62
     7
100
AcDbHatch
 10
0.0
 20
0.0
 30
0.0
210
0.0
220
0.0
230
1.0
  2
_L-O---1
 70
     1
 71
     1
 91
        1
 92
        2
 72
     0
 73
     1
 93
        2
 10
-257.1630859375
 20
72.1868896484375
 10
-257.697265625
 20
72.6397705078125
 97
        1
330
2FF
 75
     0
 76
     0
 98
        0
  0
LWPOLYLINE
  5
301
102
{ACAD_REACTORS
330
302
102
}
100
AcDbEntity
  8
HATCH_REACTORS
390
0
100
AcDbPolyline
 90
        4
 70
     1
 10
-257.167969
 20
72.180054
 10
-257.75293
 20
72.564819
 10
-257.726074
 20
72.602905
 10
-257.163086
 20
72.18689
  0
HATCH
  5
302
100
AcDbEntity
  8
LAYER01
370
     5
390
0
  6
Continuous
 62
     7
100
AcDbHatch
 10
0.0
 20
0.0
 30
0.0
210
0.0
220
0.0
230
1.0
  2
_L-O---1
 70
     1
 71
     1
 91
        1
 92
        2
 72
     0
 73
     1
 93
        2
 10
-257.16796875
 20
72.1800537109375
 10
-257.72607421875
 20
72.6029052734375
 97
        1
330
301
 75
     0
 76
     0
 98
        0
  0
LWPOLYLINE
  5
303
102
{ACAD_REACTORS
330
304
102
}
100
AcDbEntity
  8
HATCH_REACTORS
390
0
100
AcDbPolyline
 90
        4
 70
     1
 10
-257.172363
 20
72.172974
 10
-257.777344
 20
72.525024
 10
-257.75293
 20
72.564819
 10
-257.167969
 20
72.180054
  0
HATCH
  5
304
100
AcDbEntity
  8
LAYER01
370
     5
390
0
  6
Continuous
 62
     7
100
AcDbHatch
 10
0.0
 20
0.0
 30
0.0
210
0.0
220
0.0
230
1.0
  2
_L-O---1
 70
     1
 71
     1
 91
        1
 92
        2
 72
     0
 73
     1
 93
        2
 10
-257.17236328125
 20
72.1729736328125
 10
-257.7529296875
 20
72.5648193359375
 97
        1
330
303
 75
     0
 76
     0
 98
        0
  0
LWPOLYLINE
  5
305
102
{ACAD_REACTORS
330
306
102
}
100
AcDbEntity
  8
HATCH_REACTORS
390
0
100
AcDbPolyline
 90
        4
 70
     1
 10
-257.17627
 20
72.165894
 10
-257.799805
 20
72.484009
 10
-257.777344
 20
72.525024
 10
-257.172363
 20
72.172974
  0
HATCH
  5
306
100
AcDbEntity
  8
LAYER01
370
     5
390
0
  6
Continuous
 62
     7
100
AcDbHatch
 10
0.0
 20
0.0
 30
0.0
210
0.0
220
0.0
230
1.0
  2
_L-O---1
 70
     1
 71
     1
 91
        1
 92
        2
 72
     0
 73
     1
 93
        2
 10
-257.17626953125
 20
72.1658935546875
 10
-257.77734375
 20
72.5250244140625
 97
        1
330
305
 75
     0
 76
     0
 98
        0
  0
LWPOLYLINE
  5
307
102
{ACAD_REACTORS
330
308
102
}
100
AcDbEntity
  8
HATCH_REACTORS
390
0
100
AcDbPolyline
 90
        4
 70
     1
 10
-257.179688
 20
72.158325
 10
-257.819824
 20
72.441772
 10
-257.799805
 20
72.484009
 10
-257.17627
 20
72.165894
  0
HATCH
  5
308
100
AcDbEntity
  8
LAYER01
370
     5
390
0
  6
Continuous
 62
     7
100
AcDbHatch
 10
0.0
 20
0.0
 30
0.0
210
0.0
220
0.0
230
1.0
  2
_L-O---1
 70
     1
 71
     1
 91
        1
 92
        2
 72
     0
 73
     1
 93
        2
 10
-257.1796875
 20
72.1583251953125
 10
-257.7998046875
 20
72.4840087890625
 97
        1
330
307
 75
     0
 76
     0
 98
        0
  0
LWPOLYLINE
  5
309
102
{ACAD_REACTORS
330
30A
102
}
100
AcDbEntity
  8
HATCH_REACTORS
390
0
100
AcDbPolyline
 90
        4
 70
     1
 10
-257.182617
 20
72.150757
 10
-257.837402
 20
72.39856
 10
-257.819824
 20
72.441772
 10
-257.179688
 20
72.158325
  0
HATCH
  5
30A
100
AcDbEntity
  8
LAYER01
370
     5
390
0
  6
Continuous
 62
     7
100
AcDbHatch
 10
0.0
 20
0.0
 30
0.0
210
0.0
220
0.0
230
1.0
  2
_L-O---1
 70
     1
 71
     1
 91
        1
 92
        2
 72
     0
 73
     1
 93
        2
 10
-257.1826171875
 20
72.1507568359375
 10
-257.81982421875
 20
72.4417724609375
 97
        1
330
309
 75
     0
 76
     0
 98
        0
  0
LWPOLYLINE
  5
30B
102
{ACAD_REACTORS
330
30C
102
}
100
AcDbEntity
  8
HATCH_REACTORS
390
0
100
AcDbPolyline
 90
        4
 70
     1
 10
-257.185547
 20
72.142944
 10
-257.853027
 20
72.354614
 10
-257.837402
 20
72.39856
 10
-257.182617
 20
72.150757
  0
HATCH
  5
30C
100
AcDbEntity
  8
LAYER01
370
     5
390
0
  6
Continuous
 62
     7
100
AcDbHatch
 10
0.0
 20
0.0
 30
0.0
210
0.0
220
0.0
230
1.0
  2
_L-O---1
 70
     1
 71
     1
 91
        1
 92
        2
 72
     0
 73
     1
 93
        2
 10
-257.185546875
 20
72.1429443359375
 10
-257.83740234375
 20
72.3985595703125
 97
        1
330
30B
 75
     0
 76
     0
 98
        0
  0
LWPOLYLINE
  5
30D
102
{ACAD_REACTORS
330
30E
102
}
100
AcDbEntity
  8
HATCH_REACTORS
390
0
100
AcDbPolyline
 90
        4
 70
     1
 10
-257.187988
 20
72.135132
 10
-257.865723
 20
72.309692
 10
-257.853027
 20
72.354614
 10
-257.185547
 20
72.142944
  0
HATCH
  5
30E
100
AcDbEntity
  8
LAYER01
370
     5
390
0
  6
Continuous
 62
     7
100
AcDbHatch
 10
0.0
 20
0.0
 30
0.0
210
0.0
220
0.0
230
1.0
  2
_L-O---1
 70
     1
 71
     1
 91
        1
 92
        2
 72
     0
 73
     1
 93
        2
 10
-257.18798828125
 20
72.1351318359375
 10
-257.85302734375
 20
72.3546142578125
 97
        1
330
30D
 75
     0
 76
     0
 98
        0
  0
LWPOLYLINE
  5
30F
102
{ACAD_REACTORS
330
310
102
}
100
AcDbEntity
  8
HATCH_REACTORS
390
0
100
AcDbPolyline
 90
        4
 70
     1
 10
-257.189453
 20
72.127075
 10
-257.875977
 20
72.264038
 10
-257.865723
 20
72.309692
 10
-257.187988
 20
72.135132
  0
HATCH
  5
310
100
AcDbEntity
  8
LAYER01
370
     5
390
0
  6
Continuous
 62
     7
100
AcDbHatch
 10
0.0
 20
0.0
 30
0.0
210
0.0
220
0.0
230
1.0
  2
_L-O---1
 70
     1
 71
     1
 91
        1
 92
        2
 72
     0
 73
     1
 93
        2
 10
-257.189453125
 20
72.1270751953125
 10
-257.86572265625
 20
72.3096923828125
 97
        1
330
30F
 75
     0
 76
     0
 98
        0
  0
LWPOLYLINE
  5
311
102
{ACAD_REACTORS
330
312
102
}
100
AcDbEntity
  8
HATCH_REACTORS
390
0
100
AcDbPolyline
 90
        4
 70
     1
 10
-257.190918
 20
72.119019
 10
-257.883789
 20
72.21814
 10
-257.875977
 20
72.264038
 10
-257.189453
 20
72.127075
  0
HATCH
  5
312
100
AcDbEntity
  8
LAYER01
370
     5
390
0
  6
Continuous
 62
     7
100
AcDbHatch
 10
0.0
 20
0.0
 30
0.0
210
0.0
220
0.0
230
1.0
  2
_L-O---1
 70
     1
 71
     1
 91
        1
 92
        2
 72
     0
 73
     1
 93
        2
 10
-257.19091796875
 20
72.1190185546875
 10
-257.8759765625
 20
72.2640380859375
 97
        1
330
311
 75
     0
 76
     0
 98
        0
  0
LWPOLYLINE
  5
313
102
{ACAD_REACTORS
330
314
102
}
100
AcDbEntity
  8
HATCH_REACTORS
390
0
100
AcDbPolyline
 90
        4
 70
     1
 10
-257.191895
 20
72.110718
 10
-257.88916
 20
72.171753
 10
-257.883789
 20
72.21814
 10
-257.190918
 20
72.119019
  0
HATCH
  5
314
100
AcDbEntity
  8
LAYER01
370
     5
390
0
  6
Continuous
 62
     7
100
AcDbHatch
 10
0.0
 20
0.0
 30
0.0
210
0.0
220
0.0
230
1.0
  2
_L-O---1
 70
     1
 71
     1
 91
        1
 92
        2
 72
     0
 73
     1
 93
        2
 10
-257.19189453125
 20
72.1107177734375
 10
-257.8837890625
 20
72.2181396484375
 97
        1
330
313
 75
     0
 76
     0
 98
        0
  0
LWPOLYLINE
  5
315
102
{ACAD_REACTORS
330
316
102
}
100
AcDbEntity
  8
HATCH_REACTORS
390
0
100
AcDbPolyline
 90
        4
 70
     1
 10
-258.412109
 20
63.171021
 10
-259.105469
 20
63.265747
 10
-257.887207
 20
72.188599
 10
-257.193848
 20
72.093872
  0
HATCH
  5
316
100
AcDbEntity
  8
LAYER01
370
     5
390
0
  6
Continuous
 62
     7
100
AcDbHatch
 10
0.0
 20
0.0
 30
0.0
210
0.0
220
0.0
230
1.0
  2
_L-O---1
 70
     1
 71
     1
 91
        1
 92
        2
 72
     0
 73
     1
 93
        4
 10
-258.412109375
 20
63.1710205078125
 10
-259.10546875
 20
63.2657470703125
 10
-257.88720703125
 20
72.1885986328125
 10
-257.19384765625
 20
72.0938720703125
 97
        1
330
315
 75
     0
 76
     0
 98
        0
  0
LWPOLYLINE
  5
317
100
AcDbEntity
  8
LAYER01
370
    35
390
0
  6
Continuous
 62
   134
100
AcDbPolyline
 90
        2
 70
     0
 10
-258.038574
 20
72.184692
 10
-259.256836
 20
63.262085
  0
LWPOLYLINE
  5
318
100
AcDbEntity
  8
LAYER01
370
    25
390
0
  6
DASHDOT
 62
    92
100
AcDbPolyline
 90
        2
 70
     0
 10
-253.219727
 20
93.703491
 10
-268.0
 20
93.703491
  0
LWPOLYLINE
  5
319
100
AcDbEntity
  8
LAYER01
370
    35
390
0
  6
Continuous
 62
   134
100
AcDbPolyline
 90
        2
 70
     0
 10
-255.399902
 20
90.74939
 10
-255.399902
 20
96.657349
  0
LWPOLYLINE
  5
31A
100
AcDbEntity
  8
LAYER01
370
    13
390
0
  6
Continuous
 62
   213
100
AcDbPolyline
 90
        2
 70
     0
 10
-255.399902
 20
92.16272
 42
0.626098
 10
-255.399902
 20
95.244019
  0
LWPOLYLINE
  5
31B
100
AcDbEntity
  8
LAYER01
370
    13
390
0
  6
Continuous
 62
   213
100
AcDbPolyline
 90
        2
 70
     0
 10
-258.399902
 20
90.127808
 42
0.423414
 10
-255.399902
 20
90.749634
  0
LWPOLYLINE
  5
31C
100
AcDbEntity
  8
LAYER01
370
    13
390
0
  6
Continuous
 62
   213
100
AcDbPolyline
 90
        2
 70
     0
 10
-255.399902
 20
96.657349
 42
0.423414
 10
-258.399902
 20
97.278931
  0
LWPOLYLINE
  5
31D
100
AcDbEntity
  8
LAYER01
370
    35
390
0
  6
Continuous
 62
   134
100
AcDbPolyline
 90
        2
 70
     0
 10
-259.256836
 20
63.262085
 10
-258.260742
 20
63.174927
  0
LWPOLYLINE
  5
31E
100
AcDbEntity
  8
LAYER01
370
    35
390
0
  6
Continuous
 62
   134
100
AcDbPolyline
 90
        2
 70
     0
 10
-178.445313
 20
73.097534
 10
-178.445313
 20
72.097534
  0
LWPOLYLINE
  5
31F
100
AcDbEntity
  8
LAYER01
370
    35
390
0
  6
Continuous
 62
   134
100
AcDbPolyline
 90
        2
 70
     0
 10
-237.0
 20
72.097534
 10
-180.0
 20
72.097534
  0
LWPOLYLINE
  5
320
100
AcDbEntity
  8
LAYER01
370
    35
390
0
  6
Continuous
 62
   134
100
AcDbPolyline
 90
        2
 70
     0
 10
-180.0
 20
72.097534
 10
-131.0
 20
72.097534
  0
LWPOLYLINE
  5
321
100
AcDbEntity
  8
LAYER01
370
    35
390
0
  6
Continuous
 62
   134
100
AcDbPolyline
 90
        2
 70
     0
 10
-238.0
 20
62.097534
 10
-237.0
 20
62.097534
  0
LWPOLYLINE
  5
322
100
AcDbEntity
  8
LAYER01
370
    35
390
0
  6
Continuous
 62
   134
100
AcDbPolyline
 90
        2
 70
     0
 10
-237.0
 20
71.097534
 10
-130.0
 20
71.097534
  0
LWPOLYLINE
  5
323
100
AcDbEntity
  8
LAYER01
370
    35
390
0
  6
Continuous
 62
   134
100
AcDbPolyline
 90
        2
 70
     0
 10
-131.0
 20
116.097534
 10
-130.0
 20
116.097534
  0
LWPOLYLINE
  5
324
100
AcDbEntity
  8
LAYER01
370
    25
390
0
  6
Continuous
 62
    92
100
AcDbPolyline
 90
        2
 70
     0
 10
-211.182617
 20
111.952515
 10
-145.0
 20
126.580933
  0
LWPOLYLINE
  5
325
100
AcDbEntity
  8
LAYER01
370
    25
390
0
  6
Continuous
 62
    92
100
AcDbPolyline
 90
        2
 70
     0
 10
-144.752441
 20
126.578979
 42
-0.322654
 10
-130.696289
 20
116.097534
  0
LWPOLYLINE
  5
326
100
AcDbEntity
  8
LAYER01
370
    25
390
0
  6
Continuous
 62
    92
100
AcDbPolyline
 90
        3
 70
     0
 10
-131.0
 20
106.195923
 42
-0.372581
 10
-148.317383
 20
96.952515
 10
-174.580566
 20
102.908569
  0
LWPOLYLINE
  5
327
100
AcDbEntity
  8
LAYER01
370
    25
390
0
  6
Continuous
 62
    92
100
AcDbPolyline
 90
        3
 70
     0
 10
-192.726074
 20
107.023804
 10
-211.182617
 20
111.209595
 42
1.069415
 10
-211.182617
 20
76.952515
  0
LWPOLYLINE
  5
328
100
AcDbEntity
  8
LAYER01
370
    25
390
0
  6
Continuous
 62
    92
100
AcDbPolyline
 90
        2
 70
     0
 10
-211.182617
 20
111.952515
 10
-145.0
 20
126.580933
  0
LWPOLYLINE
  5
329
100
AcDbEntity
  8
LAYER01
370
    25
390
0
  6
Continuous
 62
    92
100
AcDbPolyline
 90
        2
 70
     0
 10
-144.752441
 20
126.578979
 42
-0.322654
 10
-130.696289
 20
116.097534
  0
LWPOLYLINE
  5
32A
100
AcDbEntity
  8
LAYER01
370
    25
390
0
  6
Continuous
 62
    92
100
AcDbPolyline
 90
        3
 70
     0
 10
-131.0
 20
106.195923
 42
-0.372581
 10
-148.317383
 20
96.952515
 10
-174.580566
 20
102.908569
  0
LWPOLYLINE
  5
32B
100
AcDbEntity
  8
LAYER01
370
    25
390
0
  6
Continuous
 62
    92
100
AcDbPolyline
 90
        3
 70
     0
 10
-174.580566
 20
102.908569
 10
-211.182617
 20
111.209595
 42
1.069415
 10
-211.182617
 20
76.952515
  0
LWPOLYLINE
  5
32C
100
AcDbEntity
  8
LAYER01
370
    25
390
0
  6
Continuous
 62
    92
100
AcDbPolyline
 90
        3
 70
     0
 10
-211.182617
 20
76.952515
 10
-148.317383
 20
96.209595
 42
-0.372581
 10
-131.0
 20
86.966187
  0
LWPOLYLINE
  5
32D
100
AcDbEntity
  8
LAYER01
370
    25
390
0
  6
Continuous
 62
    92
100
AcDbPolyline
 90
        3
 70
     0
 10
-197.460938
 20
73.097534
 10
-211.182617
 20
76.209595
 42
0.233732
 10
-224.11084
 20
73.097534
  0
LWPOLYLINE
  5
32E
100
AcDbEntity
  8
LAYER01
370
    35
390
0
  6
Continuous
 62
   134
100
AcDbPolyline
 90
        2
 70
     0
 10
-237.0
 20
71.097534
 10
-237.0
 20
62.097534
  0
LWPOLYLINE
  5
32F
100
AcDbEntity
  8
LAYER01
370
    35
390
0
  6
Continuous
 62
   134
100
AcDbPolyline
 90
        2
 70
     0
 10
-238.0
 20
71.097534
 10
-238.0
 20
62.097534
  0
LWPOLYLINE
  5
330
100
AcDbEntity
  8
LAYER01
370
    13
390
0
  6
Continuous
 62
   213
100
AcDbPolyline
 90
        2
 70
     0
 10
-237.0
 20
72.097534
 42
0.414214
 10
-238.0
 20
71.097534
  0
LWPOLYLINE
  5
331
100
AcDbEntity
  8
LAYER01
370
    25
390
0
  6
DASHDOT
 62
    92
100
AcDbPolyline
 90
        2
 70
     0
 10
-200.0
 20
67.859741
 10
-200.0
 20
73.097534
  0
LWPOLYLINE
  5
332
100
AcDbEntity
  8
LAYER01
370
    35
390
0
  6
Continuous
 62
   134
100
AcDbPolyline
 90
        2
 70
     0
 10
-201.5
 20
71.097534
 10
-201.5
 20
73.097534
  0
LWPOLYLINE
  5
333
100
AcDbEntity
  8
LAYER01
370
    35
390
0
  6
Continuous
 62
   134
100
AcDbPolyline
 90
        2
 70
     0
 10
-198.5
 20
71.097534
 10
-198.5
 20
73.097534
  0
LWPOLYLINE
  5
334
100
AcDbEntity
  8
LAYER01
370
    35
390
0
  6
Continuous
 62
   134
100
AcDbPolyline
 90
        2
 70
     0
 10
-203.75
 20
74.035034
 10
-196.25
 20
74.035034
  0
LWPOLYLINE
  5
335
100
AcDbEntity
  8
LAYER01
370
    13
390
0
  6
Continuous
 62
   213
100
AcDbPolyline
 90
        2
 70
     0
 10
-195.625
 20
73.410034
 42
0.414214
 10
-196.25
 20
74.035034
  0
LWPOLYLINE
  5
336
100
AcDbEntity
  8
LAYER01
370
    35
390
0
  6
Continuous
 62
   134
100
AcDbPolyline
 90
        2
 70
     0
 10
-195.625
 20
73.410034
 10
-195.625
 20
73.097534
  0
LWPOLYLINE
  5
337
100
AcDbEntity
  8
LAYER01
370
    35
390
0
  6
Continuous
 62
   134
100
AcDbPolyline
 90
        2
 70
     0
 10
-195.625
 20
73.097534
 10
-204.375
 20
73.097534
  0
LWPOLYLINE
  5
338
100
AcDbEntity
  8
LAYER01
370
    35
390
0
  6
Continuous
 62
   134
100
AcDbPolyline
 90
        2
 70
     0
 10
-204.375
 20
73.097534
 10
-204.375
 20
73.410034
  0
LWPOLYLINE
  5
339
100
AcDbEntity
  8
LAYER01
370
    13
390
0
  6
Continuous
 62
   213
100
AcDbPolyline
 90
        2
 70
     0
 10
-203.75
 20
74.035034
 42
0.414214
 10
-204.375
 20
73.410034
  0
LWPOLYLINE
  5
33A
100
AcDbEntity
  8
LAYER01
370
    35
390
0
  6
Continuous
 62
   134
100
AcDbPolyline
 90
        2
 70
     0
 10
-201.846191
 20
69.222534
 10
-198.153809
 20
69.222534
  0
LWPOLYLINE
  5
33B
100
AcDbEntity
  8
LAYER01
370
    13
390
0
  6
Continuous
 62
   213
100
AcDbPolyline
 90
        2
 70
     0
 10
-200.962891
 20
69.222534
 42
0.626098
 10
-199.037109
 20
69.222534
  0
LWPOLYLINE
  5
33C
100
AcDbEntity
  8
LAYER01
370
    13
390
0
  6
Continuous
 62
   213
100
AcDbPolyline
 90
        2
 70
     0
 10
-202.234863
 20
71.097534
 42
0.423414
 10
-201.846191
 20
69.222534
  0
LWPOLYLINE
  5
33D
100
AcDbEntity
  8
LAYER01
370
    13
390
0
  6
Continuous
 62
   213
100
AcDbPolyline
 90
        2
 70
     0
 10
-198.153809
 20
69.222534
 42
0.423414
 10
-197.765137
 20
71.097534
  0
LWPOLYLINE
  5
33E
100
AcDbEntity
  8
LAYER01
370
    25
390
0
  6
Continuous
 62
    92
100
AcDbPolyline
 90
        2
 70
     0
 10
-215.0
 20
71.097534
 10
-135.0
 20
56.097534
  0
LWPOLYLINE
  5
33F
100
AcDbEntity
  8
LAYER01
370
    25
390
0
  6
Continuous
 62
    92
100
AcDbPolyline
 90
        2
 70
     0
 10
-215.0
 20
46.097534
 10
-135.0
 20
56.097534
  0
LWPOLYLINE
  5
340
100
AcDbEntity
  8
LAYER01
370
    25
390
0
  6
Continuous
 62
    92
100
AcDbPolyline
 90
        2
 70
     0
 10
-215.0
 20
16.097534
 10
-135.0
 20
31.097534
  0
LWPOLYLINE
  5
341
100
AcDbEntity
  8
LAYER01
370
    25
390
0
  6
Continuous
 62
    92
100
AcDbPolyline
 90
        2
 70
     0
 10
-215.0
 20
46.097534
 10
-135.0
 20
31.097534
  0
LWPOLYLINE
  5
342
100
AcDbEntity
  8
LAYER01
370
    25
390
0
  6
Continuous
 62
    92
100
AcDbPolyline
 90
        2
 70
     0
 10
-215.0
 20
16.097534
 10
-135.0
 20
1.097534
  0
LWPOLYLINE
  5
343
100
AcDbEntity
  8
LAYER01
370
    18
390
0
  6
Continuous
 62
     7
100
AcDbPolyline
 90
        2
 70
     0
 10
-244.652832
 20
93.713745
 10
-246.98291
 20
86.504028
  0
LWPOLYLINE
  5
344
100
AcDbEntity
  8
LAYER01
370
    18
390
0
  6
Continuous
 62
     7
100
AcDbPolyline
 90
        2
 70
     0
 10
-246.98291
 20
86.504028
 10
-242.322754
 20
86.504028
  0
LWPOLYLINE
  5
345
100
AcDbEntity
  8
LAYER01
370
    18
390
0
  6
Continuous
 62
     7
100
AcDbPolyline
 90
        2
 70
     0
 10
-244.652832
 20
93.713745
 10
-242.322754
 20
86.504028
  0
LWPOLYLINE
  5
346
100
AcDbEntity
  8
LAYER01
370
    13
390
0
  6
Continuous
 62
   213
100
AcDbPolyline
 90
       88
 70
     0
 10
-244.652832
 20
86.504028
 10
-244.53125
 20
85.69519
 10
-244.419434
 20
84.890991
 10
-244.317871
 20
84.091187
 10
-244.226563
 20
83.295044
 10
-244.144531
 20
82.502563
 10
-244.072266
 20
81.713013
 10
-244.009277
 20
80.926147
 10
-243.955078
 20
80.141479
 10
-243.910156
 20
79.358521
 10
-243.874023
 20
78.577271
 10
-243.84668
 20
77.796753
 10
-243.828125
 20
77.017212
 10
-243.817383
 20
76.237671
 10
-243.81543
 20
75.45813
 10
-243.820801
 20
74.677856
 10
-243.834473
 20
73.896606
 10
-243.855957
 20
73.114136
 10
-243.884766
 20
72.329712
 10
-243.920898
 20
71.543335
 10
-243.964355
 20
70.754028
 10
-244.015137
 20
69.962036
 10
-244.072266
 20
69.166626
 10
-244.13623
 20
68.36731
 10
-244.207031
 20
67.563843
 10
-244.28418
 20
66.755737
 10
-244.367188
 20
65.942749
 10
-244.456543
 20
65.12439
 10
-244.551758
 20
64.300171
 10
-244.652832
 20
63.469604
 10
-244.760254
 20
62.625122
 10
-244.874023
 20
61.775024
 10
-244.994629
 20
60.920532
 10
-245.12207
 20
60.06311
 10
-245.257324
 20
59.203979
 10
-245.400879
 20
58.344116
 10
-245.553223
 20
57.484741
 10
-245.714355
 20
56.627563
 10
-245.885254
 20
55.773071
 10
-246.066406
 20
54.923218
 10
-246.258301
 20
54.078735
 10
-246.461426
 20
53.241089
 10
-246.675781
 20
52.411255
 10
-246.902832
 20
51.590698
 10
-247.142578
 20
50.78064
 10
-247.39502
 20
49.9823
 10
-247.661621
 20
49.196655
 10
-247.941895
 20
48.425171
 10
-248.237305
 20
47.669067
 10
-248.547852
 20
46.929565
 10
-248.874023
 20
46.207886
 10
-249.21582
 20
45.505249
 10
-249.575195
 20
44.822632
 10
-249.951172
 20
44.161499
 10
-250.345215
 20
43.523315
 10
-250.756836
 20
42.908813
 10
-251.1875
 20
42.319458
 10
-251.637695
 20
41.75647
 10
-252.106934
 20
41.221313
 10
-252.562012
 20
40.748657
 10
-253.034668
 20
40.300415
 10
-253.524414
 20
39.876587
 10
-254.03125
 20
39.476685
 10
-254.554688
 20
39.10022
 10
-255.095215
 20
38.746948
 10
-255.651855
 20
38.416626
 10
-256.225586
 20
38.108521
 10
-256.81543
 20
37.822632
 10
-257.420898
 20
37.558228
 10
-258.042969
 20
37.315308
 10
-258.680664
 20
37.093628
 10
-259.334473
 20
36.892212
 10
-260.003418
 20
36.711304
 10
-260.687988
 20
36.550171
 10
-261.387695
 20
36.408569
 10
-262.102539
 20
36.286255
 10
-262.832031
 20
36.182495
 10
-263.57666
 20
36.097534
 10
-264.336426
 20
36.030396
 10
-265.109863
 20
35.981079
 10
-265.898438
 20
35.949097
 10
-266.700684
 20
35.934204
 10
-267.517578
 20
35.935913
 10
-268.348145
 20
35.953735
 10
-269.192383
 20
35.987671
 10
-270.050293
 20
36.036987
 10
-270.921387
 20
36.101685
 10
-271.806152
 20
36.18103
  0
LWPOLYLINE
  5
347
100
AcDbEntity
  8
LAYER01
370
    25
390
0
  6
Continuous
 62
    92
100
AcDbPolyline
 90
        5
 70
     0
 10
-211.182617
 20
321.792114
 10
-148.317383
 20
307.535034
 42
1.252166
 10
-148.317383
 20
336.792114
 10
-211.182617
 20
322.535034
 42
-1.252166
 10
-211.182617
 20
351.792114
  0
LWPOLYLINE
  5
348
100
AcDbEntity
  8
LAYER01
370
    25
390
0
  6
Continuous
 62
    92
100
AcDbPolyline
 90
        3
 70
     0
 10
-211.182617
 20
351.792114
 10
-148.317383
 20
337.535034
 42
0.979083
 10
-141.067383
 20
366.638794
  0
LWPOLYLINE
  5
349
100
AcDbEntity
  8
LAYER01
370
    25
390
0
  6
Continuous
 62
    92
100
AcDbPolyline
 90
        3
 70
     0
 10
-149.789551
 20
366.45813
 10
-211.182617
 20
352.535034
 42
-0.466743
 10
-229.483398
 20
366.45813
  0
LWPOLYLINE
  5
34A
100
AcDbEntity
  8
LAYER01
370
    35
390
0
  6
Continuous
 62
   134
100
AcDbPolyline
 90
        4
 70
     1
 10
-132.5
 20
89.097534
 10
-131.0
 20
89.097534
 10
-131.0
 20
99.097534
 10
-132.5
 20
99.097534
  0
LWPOLYLINE
  5
34B
100
AcDbEntity
  8
LAYER01
370
    35
390
0
  6
Continuous
 62
   134
100
AcDbPolyline
 90
        4
 70
     1
 10
-131.0
 20
91.097534
 10
-86.0
 20
91.097534
 10
-86.0
 20
97.097534
 10
-131.0
 20
97.097534
  0
LWPOLYLINE
  5
34C
100
AcDbEntity
  8
LAYER01
370
    35
390
0
  6
Continuous
 62
   134
100
AcDbPolyline
 90
        2
 70
     0
 10
-131.0
 20
93.097534
 10
-86.0
 20
96.097534
  0
LWPOLYLINE
  5
34D
100
AcDbEntity
  8
LAYER01
370
    35
390
0
  6
Continuous
 62
   134
100
AcDbPolyline
 90
        4
 70
     1
 10
-133.5
 20
94.657593
 10
-132.5
 20
94.657593
 10
-132.5
 20
96.657593
 10
-133.5
 20
96.657593
  0
LWPOLYLINE
  5
34E
102
{ACAD_REACTORS
330
34F
102
}
100
AcDbEntity
  8
HATCH_REACTORS
390
0
100
AcDbPolyline
 90
        4
 70
     1
 10
-238.780273
 20
71.370728
 10
-238.780273
 20
71.364624
 10
-238.813477
 20
71.364624
 10
-238.813477
 20
71.370728
  0
HATCH
  5
34F
100
AcDbEntity
  8
LAYER01
370
     5
390
0
  6
Continuous
 62
     7
100
AcDbHatch
 10
0.0
 20
0.0
 30
0.0
210
0.0
220
0.0
230
1.0
  2
_L-O---1
 70
     1
 71
     1
 91
        1
 92
        2
 72
     0
 73
     1
 93
        0
 97
        1
330
34E
 75
     0
 76
     0
 98
        0
  0
LWPOLYLINE
  5
350
102
{ACAD_REACTORS
330
351
102
}
100
AcDbEntity
  8
HATCH_REACTORS
390
0
100
AcDbPolyline
 90
        4
 70
     1
 10
-238.746582
 20
71.364624
 10
-238.746582
 20
71.360229
 10
-238.780273
 20
71.360229
 10
-238.780273
 20
71.364624
  0
HATCH
  5
351
100
AcDbEntity
  8
LAYER01
370
     5
390
0
  6
Continuous
 62
     7
100
AcDbHatch
 10
0.0
 20
0.0
 30
0.0
210
0.0
220
0.0
230
1.0
  2
_L-O---1
 70
     1
 71
     1
 91
        1
 92
        2
 72
     0
 73
     1
 93
        0
 97
        1
330
350
 75
     0
 76
     0
 98
        0
  0
LWPOLYLINE
  5
352
102
{ACAD_REACTORS
330
353
102
}
100
AcDbEntity
  8
HATCH_REACTORS
390
0
100
AcDbPolyline
 90
        4
 70
     1
 10
-238.712891
 20
71.360229
 10
-238.712891
 20
71.357788
 10
-238.746582
 20
71.357788
 10
-238.746582
 20
71.360229
  0
HATCH
  5
353
100
AcDbEntity
  8
LAYER01
370
     5
390
0
  6
Continuous
 62
     7
100
AcDbHatch
 10
0.0
 20
0.0
 30
0.0
210
0.0
220
0.0
230
1.0
  2
_L-O---1
 70
     1
 71
     1
 91
        1
 92
        2
 72
     0
 73
     1
 93
        0
 97
        1
330
352
 75
     0
 76
     0
 98
        0
  0
LWPOLYLINE
  5
354
102
{ACAD_REACTORS
330
355
102
}
100
AcDbEntity
  8
HATCH_REACTORS
390
0
100
AcDbPolyline
 90
        4
 70
     1
 10
-238.679199
 20
71.357788
 10
-238.679199
 20
71.357056
 10
-238.712891
 20
71.357056
 10
-238.712891
 20
71.357788
  0
HATCH
  5
355
100
AcDbEntity
  8
LAYER01
370
     5
390
0
  6
Continuous
 62
     7
100
AcDbHatch
 10
0.0
 20
0.0
 30
0.0
210
0.0
220
0.0
230
1.0
  2
_L-O---1
 70
     1
 71
     1
 91
        1
 92
        2
 72
     0
 73
     1
 93
        0
 97
        1
330
354
 75
     0
 76
     0
 98
        0
  0
LWPOLYLINE
  5
356
102
{ACAD_REACTORS
330
357
102
}
100
AcDbEntity
  8
HATCH_REACTORS
390
0
100
AcDbPolyline
 90
        4
 70
     1
 10
-238.679199
 20
71.357056
 10
-238.679199
 20
71.358276
 10
-238.645508
 20
71.358276
 10
-238.645508
 20
71.357056
  0
HATCH
  5
357
100
AcDbEntity
  8
LAYER01
370
     5
390
0
  6
Continuous
 62
     7
100
AcDbHatch
 10
0.0
 20
0.0
 30
0.0
210
0.0
220
0.0
230
1.0
  2
_L-O---1
 70
     1
 71
     1
 91
        1
 92
        2
 72
     0
 73
     1
 93
        0
 97
        1
330
356
 75
     0
 76
     0
 98
        0
  0
LWPOLYLINE
  5
358
102
{ACAD_REACTORS
330
359
102
}
100
AcDbEntity
  8
HATCH_REACTORS
390
0
100
AcDbPolyline
 90
        4
 70
     1
 10
-238.645508
 20
71.358276
 10
-238.645508
 20
71.361206
 10
-238.611816
 20
71.361206
 10
-238.611816
 20
71.358276
  0
HATCH
  5
359
100
AcDbEntity
  8
LAYER01
370
     5
390
0
  6
Continuous
 62
     7
100
AcDbHatch
 10
0.0
 20
0.0
 30
0.0
210
0.0
220
0.0
230
1.0
  2
_L-O---1
 70
     1
 71
     1
 91
        1
 92
        2
 72
     0
 73
     1
 93
        0
 97
        1
330
358
 75
     0
 76
     0
 98
        0
  0
LWPOLYLINE
  5
35A
102
{ACAD_REACTORS
330
35B
102
}
100
AcDbEntity
  8
HATCH_REACTORS
390
0
100
AcDbPolyline
 90
        4
 70
     1
 10
-238.611816
 20
71.361206
 10
-238.611816
 20
71.366089
 10
-238.578125
 20
71.366089
 10
-238.578125
 20
71.361206
  0
HATCH
  5
35B
100
AcDbEntity
  8
LAYER01
370
     5
390
0
  6
Continuous
 62
     7
100
AcDbHatch
 10
0.0
 20
0.0
 30
0.0
210
0.0
220
0.0
230
1.0
  2
_L-O---1
 70
     1
 71
     1
 91
        1
 92
        2
 72
     0
 73
     1
 93
        0
 97
        1
330
35A
 75
     0
 76
     0
 98
        0
  0
LWPOLYLINE
  5
35C
102
{ACAD_REACTORS
330
35D
102
}
100
AcDbEntity
  8
HATCH_REACTORS
390
0
100
AcDbPolyline
 90
        4
 70
     1
 10
-238.578125
 20
71.366089
 10
-238.578125
 20
71.372681
 10
-238.544922
 20
71.372681
 10
-238.544922
 20
71.366089
  0
HATCH
  5
35D
100
AcDbEntity
  8
LAYER01
370
     5
390
0
  6
Continuous
 62
     7
100
AcDbHatch
 10
0.0
 20
0.0
 30
0.0
210
0.0
220
0.0
230
1.0
  2
_L-O---1
 70
     1
 71
     1
 91
        1
 92
        2
 72
     0
 73
     1
 93
        0
 97
        1
330
35C
 75
     0
 76
     0
 98
        0
  0
LWPOLYLINE
  5
35E
102
{ACAD_REACTORS
330
35F
102
}
100
AcDbEntity
  8
HATCH_REACTORS
390
0
100
AcDbPolyline
 90
        4
 70
     1
 10
-238.544922
 20
71.372681
 10
-238.544922
 20
71.380981
 10
-238.512207
 20
71.380981
 10
-238.512207
 20
71.372681
  0
HATCH
  5
35F
100
AcDbEntity
  8
LAYER01
370
     5
390
0
  6
Continuous
 62
     7
100
AcDbHatch
 10
0.0
 20
0.0
 30
0.0
210
0.0
220
0.0
230
1.0
  2
_L-O---1
 70
     1
 71
     1
 91
        1
 92
        2
 72
     0
 73
     1
 93
        0
 97
        1
330
35E
 75
     0
 76
     0
 98
        0
  0
LWPOLYLINE
  5
360
102
{ACAD_REACTORS
330
361
102
}
100
AcDbEntity
  8
HATCH_REACTORS
390
0
100
AcDbPolyline
 90
        4
 70
     1
 10
-238.512207
 20
71.380981
 10
-238.512207
 20
71.391235
 10
-238.47998
 20
71.391235
 10
-238.47998
 20
71.380981
  0
HATCH
  5
361
100
AcDbEntity
  8
LAYER01
370
     5
390
0
  6
Continuous
 62
     7
100
AcDbHatch
 10
0.0
 20
0.0
 30
0.0
210
0.0
220
0.0
230
1.0
  2
_L-O---1
 70
     1
 71
     1
 91
        1
 92
        2
 72
     0
 73
     1
 93
        0
 97
        1
330
360
 75
     0
 76
     0
 98
        0
  0
LWPOLYLINE
  5
362
102
{ACAD_REACTORS
330
363
102
}
100
AcDbEntity
  8
HATCH_REACTORS
390
0
100
AcDbPolyline
 90
        4
 70
     1
 10
-238.47998
 20
71.391235
 10
-238.47998
 20
71.402954
 10
-238.448242
 20
71.402954
 10
-238.448242
 20
71.391235
  0
HATCH
  5
363
100
AcDbEntity
  8
LAYER01
370
     5
390
0
  6
Continuous
 62
     7
100
AcDbHatch
 10
0.0
 20
0.0
 30
0.0
210
0.0
220
0.0
230
1.0
  2
_L-O---1
 70
     1
 71
     1
 91
        1
 92
        2
 72
     0
 73
     1
 93
        0
 97
        1
330
362
 75
     0
 76
     0
 98
        0
  0
LWPOLYLINE
  5
364
102
{ACAD_REACTORS
330
365
102
}
100
AcDbEntity
  8
HATCH_REACTORS
390
0
100
AcDbPolyline
 90
        4
 70
     1
 10
-238.448242
 20
71.402954
 10
-238.448242
 20
71.416626
 10
-238.416992
 20
71.416626
 10
-238.416992
 20
71.402954
  0
HATCH
  5
365
100
AcDbEntity
  8
LAYER01
370
     5
390
0
  6
Continuous
 62
     7
100
AcDbHatch
 10
0.0
 20
0.0
 30
0.0
210
0.0
220
0.0
230
1.0
  2
_L-O---1
 70
     1
 71
     1
 91
        1
 92
        2
 72
     0
 73
     1
 93
        0
 97
        1
330
364
 75
     0
 76
     0
 98
        0
  0
LWPOLYLINE
  5
366
102
{ACAD_REACTORS
330
367
102
}
100
AcDbEntity
  8
HATCH_REACTORS
390
0
100
AcDbPolyline
 90
        4
 70
     1
 10
-238.416992
 20
71.416626
 10
-238.416992
 20
71.431763
 10
-238.386719
 20
71.431763
 10
-238.386719
 20
71.416626
  0
HATCH
  5
367
100
AcDbEntity
  8
LAYER01
370
     5
390
0
  6
Continuous
 62
     7
100
AcDbHatch
 10
0.0
 20
0.0
 30
0.0
210
0.0
220
0.0
230
1.0
  2
_L-O---1
 70
     1
 71
     1
 91
        1
 92
        2
 72
     0
 73
     1
 93
        0
 97
        1
330
366
 75
     0
 76
     0
 98
        0
  0
LWPOLYLINE
  5
368
102
{ACAD_REACTORS
330
369
102
}
100
AcDbEntity
  8
HATCH_REACTORS
390
0
100
AcDbPolyline
 90
        4
 70
     1
 10
-238.386719
 20
71.431763
 10
-238.386719
 20
71.448608
 10
-238.357422
 20
71.448608
 10
-238.357422
 20
71.431763
  0
HATCH
  5
369
100
AcDbEntity
  8
LAYER01
370
     5
390
0
  6
Continuous
 62
     7
100
AcDbHatch
 10
0.0
 20
0.0
 30
0.0
210
0.0
220
0.0
230
1.0
  2
_L-O---1
 70
     1
 71
     1
 91
        1
 92
        2
 72
     0
 73
     1
 93
        0
 97
        1
330
368
 75
     0
 76
     0
 98
        0
  0
LWPOLYLINE
  5
36A
102
{ACAD_REACTORS
330
36B
102
}
100
AcDbEntity
  8
HATCH_REACTORS
390
0
100
AcDbPolyline
 90
        4
 70
     1
 10
-238.357422
 20
71.448608
 10
-238.357422
 20
71.467163
 10
-238.329102
 20
71.467163
 10
-238.329102
 20
71.448608
  0
HATCH
  5
36B
100
AcDbEntity
  8
LAYER01
370
     5
390
0
  6
Continuous
 62
     7
100
AcDbHatch
 10
0.0
 20
0.0
 30
0.0
210
0.0
220
0.0
230
1.0
  2
_L-O---1
 70
     1
 71
     1
 91
        1
 92
        2
 72
     0
 73
     1
 93
        0
 97
        1
330
36A
 75
     0
 76
     0
 98
        0
  0
LWPOLYLINE
  5
36C
102
{ACAD_REACTORS
330
36D
102
}
100
AcDbEntity
  8
HATCH_REACTORS
390
0
100
AcDbPolyline
 90
        4
 70
     1
 10
-238.329102
 20
71.467163
 10
-238.329102
 20
71.487183
 10
-238.301758
 20
71.487183
 10
-238.301758
 20
71.467163
  0
HATCH
  5
36D
100
AcDbEntity
  8
LAYER01
370
     5
390
0
  6
Continuous
 62
     7
100
AcDbHatch
 10
0.0
 20
0.0
 30
0.0
210
0.0
220
0.0
230
1.0
  2
_L-O---1
 70
     1
 71
     1
 91
        1
 92
        2
 72
     0
 73
     1
 93
        0
 97
        1
330
36C
 75
     0
 76
     0
 98
        0
  0
LWPOLYLINE
  5
36E
102
{ACAD_REACTORS
330
36F
102
}
100
AcDbEntity
  8
HATCH_REACTORS
390
0
100
AcDbPolyline
 90
        4
 70
     1
 10
-238.301758
 20
71.487183
 10
-238.301758
 20
71.508423
 10
-238.275391
 20
71.508423
 10
-238.275391
 20
71.487183
  0
HATCH
  5
36F
100
AcDbEntity
  8
LAYER01
370
     5
390
0
  6
Continuous
 62
     7
100
AcDbHatch
 10
0.0
 20
0.0
 30
0.0
210
0.0
220
0.0
230
1.0
  2
_L-O---1
 70
     1
 71
     1
 91
        1
 92
        2
 72
     0
 73
     1
 93
        0
 97
        1
330
36E
 75
     0
 76
     0
 98
        0
  0
LWPOLYLINE
  5
370
102
{ACAD_REACTORS
330
371
102
}
100
AcDbEntity
  8
HATCH_REACTORS
390
0
100
AcDbPolyline
 90
        4
 70
     1
 10
-238.275391
 20
71.508423
 10
-238.275391
 20
71.531128
 10
-238.250488
 20
71.531128
 10
-238.250488
 20
71.508423
  0
HATCH
  5
371
100
AcDbEntity
  8
LAYER01
370
     5
390
0
  6
Continuous
 62
     7
100
AcDbHatch
 10
0.0
 20
0.0
 30
0.0
210
0.0
220
0.0
230
1.0
  2
_L-O---1
 70
     1
 71
     1
 91
        1
 92
        2
 72
     0
 73
     1
 93
        0
 97
        1
330
370
 75
     0
 76
     0
 98
        0
  0
LWPOLYLINE
  5
372
102
{ACAD_REACTORS
330
373
102
}
100
AcDbEntity
  8
HATCH_REACTORS
390
0
100
AcDbPolyline
 90
        4
 70
     1
 10
-238.250488
 20
71.531128
 10
-238.250488
 20
71.555298
 10
-238.226563
 20
71.555298
 10
-238.226563
 20
71.531128
  0
HATCH
  5
373
100
AcDbEntity
  8
LAYER01
370
     5
390
0
  6
Continuous
 62
     7
100
AcDbHatch
 10
0.0
 20
0.0
 30
0.0
210
0.0
220
0.0
230
1.0
  2
_L-O---1
 70
     1
 71
     1
 91
        1
 92
        2
 72
     0
 73
     1
 93
        0
 97
        1
330
372
 75
     0
 76
     0
 98
        0
  0
LWPOLYLINE
  5
374
102
{ACAD_REACTORS
330
375
102
}
100
AcDbEntity
  8
HATCH_REACTORS
390
0
100
AcDbPolyline
 90
        4
 70
     1
 10
-238.226563
 20
71.555298
 10
-238.226563
 20
71.580688
 10
-238.204102
 20
71.580688
 10
-238.204102
 20
71.555298
  0
HATCH
  5
375
100
AcDbEntity
  8
LAYER01
370
     5
390
0
  6
Continuous
 62
     7
100
AcDbHatch
 10
0.0
 20
0.0
 30
0.0
210
0.0
220
0.0
230
1.0
  2
_L-O---1
 70
     1
 71
     1
 91
        1
 92
        2
 72
     0
 73
     1
 93
        0
 97
        1
330
374
 75
     0
 76
     0
 98
        0
  0
LWPOLYLINE
  5
376
102
{ACAD_REACTORS
330
377
102
}
100
AcDbEntity
  8
HATCH_REACTORS
390
0
100
AcDbPolyline
 90
        4
 70
     1
 10
-238.204102
 20
71.580688
 10
-238.204102
 20
71.6073
 10
-238.183105
 20
71.6073
 10
-238.183105
 20
71.580688
  0
HATCH
  5
377
100
AcDbEntity
  8
LAYER01
370
     5
390
0
  6
Continuous
 62
     7
100
AcDbHatch
 10
0.0
 20
0.0
 30
0.0
210
0.0
220
0.0
230
1.0
  2
_L-O---1
 70
     1
 71
     1
 91
        1
 92
        2
 72
     0
 73
     1
 93
        0
 97
        1
330
376
 75
     0
 76
     0
 98
        0
  0
LWPOLYLINE
  5
378
102
{ACAD_REACTORS
330
379
102
}
100
AcDbEntity
  8
HATCH_REACTORS
390
0
100
AcDbPolyline
 90
        4
 70
     1
 10
-238.183105
 20
71.6073
 10
-238.183105
 20
71.634888
 10
-238.163574
 20
71.634888
 10
-238.163574
 20
71.6073
  0
HATCH
  5
379
100
AcDbEntity
  8
LAYER01
370
     5
390
0
  6
Continuous
 62
     7
100
AcDbHatch
 10
0.0
 20
0.0
 30
0.0
210
0.0
220
0.0
230
1.0
  2
_L-O---1
 70
     1
 71
     1
 91
        1
 92
        2
 72
     0
 73
     1
 93
        0
 97
        1
330
378
 75
     0
 76
     0
 98
        0
  0
LWPOLYLINE
  5
37A
102
{ACAD_REACTORS
330
37B
102
}
100
AcDbEntity
  8
HATCH_REACTORS
390
0
100
AcDbPolyline
 90
        4
 70
     1
 10
-238.163574
 20
71.634888
 10
-238.163574
 20
71.663452
 10
-238.145508
 20
71.663452
 10
-238.145508
 20
71.634888
  0
HATCH
  5
37B
100
AcDbEntity
  8
LAYER01
370
     5
390
0
  6
Continuous
 62
     7
100
AcDbHatch
 10
0.0
 20
0.0
 30
0.0
210
0.0
220
0.0
230
1.0
  2
_L-O---1
 70
     1
 71
     1
 91
        1
 92
        2
 72
     0
 73
     1
 93
        0
 97
        1
330
37A
 75
     0
 76
     0
 98
        0
  0
LWPOLYLINE
  5
37C
102
{ACAD_REACTORS
330
37D
102
}
100
AcDbEntity
  8
HATCH_REACTORS
390
0
100
AcDbPolyline
 90
        4
 70
     1
 10
-238.145508
 20
71.663452
 10
-238.145508
 20
71.692993
 10
-238.129395
 20
71.692993
 10
-238.129395
 20
71.663452
  0
HATCH
  5
37D
100
AcDbEntity
  8
LAYER01
370
     5
390
0
  6
Continuous
 62
     7
100
AcDbHatch
 10
0.0
 20
0.0
 30
0.0
210
0.0
220
0.0
230
1.0
  2
_L-O---1
 70
     1
 71
     1
 91
        1
 92
        2
 72
     0
 73
     1
 93
        0
 97
        1
330
37C
 75
     0
 76
     0
 98
        0
  0
LWPOLYLINE
  5
37E
102
{ACAD_REACTORS
330
37F
102
}
100
AcDbEntity
  8
HATCH_REACTORS
390
0
100
AcDbPolyline
 90
        4
 70
     1
 10
-238.129395
 20
71.692993
 10
-238.129395
 20
71.723511
 10
-238.114258
 20
71.723511
 10
-238.114258
 20
71.692993
  0
HATCH
  5
37F
100
AcDbEntity
  8
LAYER01
370
     5
390
0
  6
Continuous
 62
     7
100
AcDbHatch
 10
0.0
 20
0.0
 30
0.0
210
0.0
220
0.0
230
1.0
  2
_L-O---1
 70
     1
 71
     1
 91
        1
 92
        2
 72
     0
 73
     1
 93
        0
 97
        1
330
37E
 75
     0
 76
     0
 98
        0
  0
LWPOLYLINE
  5
380
102
{ACAD_REACTORS
330
381
102
}
100
AcDbEntity
  8
HATCH_REACTORS
390
0
100
AcDbPolyline
 90
        4
 70
     1
 10
-238.114258
 20
71.723511
 10
-238.114258
 20
71.754761
 10
-238.101074
 20
71.754761
 10
-238.101074
 20
71.723511
  0
HATCH
  5
381
100
AcDbEntity
  8
LAYER01
370
     5
390
0
  6
Continuous
 62
     7
100
AcDbHatch
 10
0.0
 20
0.0
 30
0.0
210
0.0
220
0.0
230
1.0
  2
_L-O---1
 70
     1
 71
     1
 91
        1
 92
        2
 72
     0
 73
     1
 93
        0
 97
        1
330
380
 75
     0
 76
     0
 98
        0
  0
LWPOLYLINE
  5
382
102
{ACAD_REACTORS
330
383
102
}
100
AcDbEntity
  8
HATCH_REACTORS
390
0
100
AcDbPolyline
 90
        4
 70
     1
 10
-238.101074
 20
71.754761
 10
-238.101074
 20
71.786499
 10
-238.089844
 20
71.786499
 10
-238.089844
 20
71.754761
  0
HATCH
  5
383
100
AcDbEntity
  8
LAYER01
370
     5
390
0
  6
Continuous
 62
     7
100
AcDbHatch
 10
0.0
 20
0.0
 30
0.0
210
0.0
220
0.0
230
1.0
  2
_L-O---1
 70
     1
 71
     1
 91
        1
 92
        2
 72
     0
 73
     1
 93
        0
 97
        1
330
382
 75
     0
 76
     0
 98
        0
  0
LWPOLYLINE
  5
384
102
{ACAD_REACTORS
330
385
102
}
100
AcDbEntity
  8
HATCH_REACTORS
390
0
100
AcDbPolyline
 90
        4
 70
     1
 10
-238.089844
 20
71.786499
 10
-238.089844
 20
71.81897
 10
-238.080078
 20
71.81897
 10
-238.080078
 20
71.786499
  0
HATCH
  5
385
100
AcDbEntity
  8
LAYER01
370
     5
390
0
  6
Continuous
 62
     7
100
AcDbHatch
 10
0.0
 20
0.0
 30
0.0
210
0.0
220
0.0
230
1.0
  2
_L-O---1
 70
     1
 71
     1
 91
        1
 92
        2
 72
     0
 73
     1
 93
        0
 97
        1
330
384
 75
     0
 76
     0
 98
        0
  0
LWPOLYLINE
  5
386
102
{ACAD_REACTORS
330
387
102
}
100
AcDbEntity
  8
HATCH_REACTORS
390
0
100
AcDbPolyline
 90
        4
 70
     1
 10
-238.080078
 20
71.81897
 10
-238.080078
 20
71.851929
 10
-238.072266
 20
71.851929
 10
-238.072266
 20
71.81897
  0
HATCH
  5
387
100
AcDbEntity
  8
LAYER01
370
     5
390
0
  6
Continuous
 62
     7
100
AcDbHatch
 10
0.0
 20
0.0
 30
0.0
210
0.0
220
0.0
230
1.0
  2
_L-O---1
 70
     1
 71
     1
 91
        1
 92
        2
 72
     0
 73
     1
 93
        0
 97
        1
330
386
 75
     0
 76
     0
 98
        0
  0
LWPOLYLINE
  5
388
102
{ACAD_REACTORS
330
389
102
}
100
AcDbEntity
  8
HATCH_REACTORS
390
0
100
AcDbPolyline
 90
        4
 70
     1
 10
-238.072266
 20
71.851929
 10
-238.072266
 20
71.885132
 10
-238.065918
 20
71.885132
 10
-238.065918
 20
71.851929
  0
HATCH
  5
389
100
AcDbEntity
  8
LAYER01
370
     5
390
0
  6
Continuous
 62
     7
100
AcDbHatch
 10
0.0
 20
0.0
 30
0.0
210
0.0
220
0.0
230
1.0
  2
_L-O---1
 70
     1
 71
     1
 91
        1
 92
        2
 72
     0
 73
     1
 93
        0
 97
        1
330
388
 75
     0
 76
     0
 98
        0
  0
LWPOLYLINE
  5
38A
102
{ACAD_REACTORS
330
38B
102
}
100
AcDbEntity
  8
HATCH_REACTORS
390
0
100
AcDbPolyline
 90
        4
 70
     1
 10
-238.065918
 20
71.885132
 10
-238.065918
 20
71.918823
 10
-238.061523
 20
71.918823
 10
-238.061523
 20
71.885132
  0
HATCH
  5
38B
100
AcDbEntity
  8
LAYER01
370
     5
390
0
  6
Continuous
 62
     7
100
AcDbHatch
 10
0.0
 20
0.0
 30
0.0
210
0.0
220
0.0
230
1.0
  2
_L-O---1
 70
     1
 71
     1
 91
        1
 92
        2
 72
     0
 73
     1
 93
        0
 97
        1
330
38A
 75
     0
 76
     0
 98
        0
  0
LWPOLYLINE
  5
38C
102
{ACAD_REACTORS
330
38D
102
}
100
AcDbEntity
  8
HATCH_REACTORS
390
0
100
AcDbPolyline
 90
        4
 70
     1
 10
-238.061523
 20
71.918823
 10
-238.061523
 20
71.952515
 10
-238.059082
 20
71.952515
 10
-238.059082
 20
71.918823
  0
HATCH
  5
38D
100
AcDbEntity
  8
LAYER01
370
     5
390
0
  6
Continuous
 62
     7
100
AcDbHatch
 10
0.0
 20
0.0
 30
0.0
210
0.0
220
0.0
230
1.0
  2
_L-O---1
 70
     1
 71
     1
 91
        1
 92
        2
 72
     0
 73
     1
 93
        0
 97
        1
330
38C
 75
     0
 76
     0
 98
        0
  0
LWPOLYLINE
  5
38E
102
{ACAD_REACTORS
330
38F
102
}
100
AcDbEntity
  8
HATCH_REACTORS
390
0
100
AcDbPolyline
 90
        4
 70
     1
 10
-238.059082
 20
71.952515
 10
-238.059082
 20
71.986206
 10
-238.058594
 20
71.986206
 10
-238.058594
 20
71.952515
  0
HATCH
  5
38F
100
AcDbEntity
  8
LAYER01
370
     5
390
0
  6
Continuous
 62
     7
100
AcDbHatch
 10
0.0
 20
0.0
 30
0.0
210
0.0
220
0.0
230
1.0
  2
_L-O---1
 70
     1
 71
     1
 91
        1
 92
        2
 72
     0
 73
     1
 93
        0
 97
        1
330
38E
 75
     0
 76
     0
 98
        0
  0
LWPOLYLINE
  5
390
102
{ACAD_REACTORS
330
391
102
}
100
AcDbEntity
  8
HATCH_REACTORS
390
0
100
AcDbPolyline
 90
        4
 70
     1
 10
-238.05957
 20
71.986206
 10
-238.05957
 20
72.020142
 10
-238.058594
 20
72.020142
 10
-238.058594
 20
71.986206
  0
HATCH
  5
391
100
AcDbEntity
  8
LAYER01
370
     5
390
0
  6
Continuous
 62
     7
100
AcDbHatch
 10
0.0
 20
0.0
 30
0.0
210
0.0
220
0.0
230
1.0
  2
_L-O---1
 70
     1
 71
     1
 91
        1
 92
        2
 72
     0
 73
     1
 93
        0
 97
        1
330
390
 75
     0
 76
     0
 98
        0
  0
LWPOLYLINE
  5
392
102
{ACAD_REACTORS
330
393
102
}
100
AcDbEntity
  8
HATCH_REACTORS
390
0
100
AcDbPolyline
 90
        4
 70
     1
 10
-238.0625
 20
72.020142
 10
-238.0625
 20
72.053833
 10
-238.05957
 20
72.053833
 10
-238.05957
 20
72.020142
  0
HATCH
  5
393
100
AcDbEntity
  8
LAYER01
370
     5
390
0
  6
Continuous
 62
     7
100
AcDbHatch
 10
0.0
 20
0.0
 30
0.0
210
0.0
220
0.0
230
1.0
  2
_L-O---1
 70
     1
 71
     1
 91
        1
 92
        2
 72
     0
 73
     1
 93
        0
 97
        1
330
392
 75
     0
 76
     0
 98
        0
  0
LWPOLYLINE
  5
394
102
{ACAD_REACTORS
330
395
102
}
100
AcDbEntity
  8
HATCH_REACTORS
390
0
100
AcDbPolyline
 90
        4
 70
     1
 10
-238.067383
 20
72.053833
 10
-238.067383
 20
72.08728
 10
-238.0625
 20
72.08728
 10
-238.0625
 20
72.053833
  0
HATCH
  5
395
100
AcDbEntity
  8
LAYER01
370
     5
390
0
  6
Continuous
 62
     7
100
AcDbHatch
 10
0.0
 20
0.0
 30
0.0
210
0.0
220
0.0
230
1.0
  2
_L-O---1
 70
     1
 71
     1
 91
        1
 92
        2
 72
     0
 73
     1
 93
        0
 97
        1
330
394
 75
     0
 76
     0
 98
        0
  0
LWPOLYLINE
  5
396
102
{ACAD_REACTORS
330
397
102
}
100
AcDbEntity
  8
HATCH_REACTORS
390
0
100
AcDbPolyline
 90
        4
 70
     1
 10
-238.07373
 20
72.08728
 10
-238.07373
 20
72.120483
 10
-238.067383
 20
72.120483
 10
-238.067383
 20
72.08728
  0
HATCH
  5
397
100
AcDbEntity
  8
LAYER01
370
     5
390
0
  6
Continuous
 62
     7
100
AcDbHatch
 10
0.0
 20
0.0
 30
0.0
210
0.0
220
0.0
230
1.0
  2
_L-O---1
 70
     1
 71
     1
 91
        1
 92
        2
 72
     0
 73
     1
 93
        0
 97
        1
330
396
 75
     0
 76
     0
 98
        0
  0
LWPOLYLINE
  5
398
102
{ACAD_REACTORS
330
399
102
}
100
AcDbEntity
  8
HATCH_REACTORS
390
0
100
AcDbPolyline
 90
        4
 70
     1
 10
-238.08252
 20
72.120483
 10
-238.08252
 20
72.153442
 10
-238.07373
 20
72.153442
 10
-238.07373
 20
72.120483
  0
HATCH
  5
399
100
AcDbEntity
  8
LAYER01
370
     5
390
0
  6
Continuous
 62
     7
100
AcDbHatch
 10
0.0
 20
0.0
 30
0.0
210
0.0
220
0.0
230
1.0
  2
_L-O---1
 70
     1
 71
     1
 91
        1
 92
        2
 72
     0
 73
     1
 93
        0
 97
        1
330
398
 75
     0
 76
     0
 98
        0
  0
LWPOLYLINE
  5
39A
102
{ACAD_REACTORS
330
39B
102
}
100
AcDbEntity
  8
HATCH_REACTORS
390
0
100
AcDbPolyline
 90
        4
 70
     1
 10
-238.092285
 20
72.153442
 10
-238.092285
 20
72.185669
 10
-238.08252
 20
72.185669
 10
-238.08252
 20
72.153442
  0
HATCH
  5
39B
100
AcDbEntity
  8
LAYER01
370
     5
390
0
  6
Continuous
 62
     7
100
AcDbHatch
 10
0.0
 20
0.0
 30
0.0
210
0.0
220
0.0
230
1.0
  2
_L-O---1
 70
     1
 71
     1
 91
        1
 92
        2
 72
     0
 73
     1
 93
        0
 97
        1
330
39A
 75
     0
 76
     0
 98
        0
  0
LWPOLYLINE
  5
39C
102
{ACAD_REACTORS
330
39D
102
}
100
AcDbEntity
  8
HATCH_REACTORS
390
0
100
AcDbPolyline
 90
        4
 70
     1
 10
-238.104492
 20
72.185669
 10
-238.104492
 20
72.217407
 10
-238.092285
 20
72.217407
 10
-238.092285
 20
72.185669
  0
HATCH
  5
39D
100
AcDbEntity
  8
LAYER01
370
     5
390
0
  6
Continuous
 62
     7
100
AcDbHatch
 10
0.0
 20
0.0
 30
0.0
210
0.0
220
0.0
230
1.0
  2
_L-O---1
 70
     1
 71
     1
 91
        1
 92
        2
 72
     0
 73
     1
 93
        0
 97
        1
330
39C
 75
     0
 76
     0
 98
        0
  0
LWPOLYLINE
  5
39E
102
{ACAD_REACTORS
330
39F
102
}
100
AcDbEntity
  8
HATCH_REACTORS
390
0
100
AcDbPolyline
 90
        4
 70
     1
 10
-238.118164
 20
72.217407
 10
-238.118164
 20
72.248413
 10
-238.104492
 20
72.248413
 10
-238.104492
 20
72.217407
  0
HATCH
  5
39F
100
AcDbEntity
  8
LAYER01
370
     5
390
0
  6
Continuous
 62
     7
100
AcDbHatch
 10
0.0
 20
0.0
 30
0.0
210
0.0
220
0.0
230
1.0
  2
_L-O---1
 70
     1
 71
     1
 91
        1
 92
        2
 72
     0
 73
     1
 93
        0
 97
        1
330
39E
 75
     0
 76
     0
 98
        0
  0
LWPOLYLINE
  5
3A0
102
{ACAD_REACTORS
330
3A1
102
}
100
AcDbEntity
  8
HATCH_REACTORS
390
0
100
AcDbPolyline
 90
        4
 70
     1
 10
-238.133301
 20
72.248413
 10
-238.133301
 20
72.278442
 10
-238.118164
 20
72.278442
 10
-238.118164
 20
72.248413
  0
HATCH
  5
3A1
100
AcDbEntity
  8
LAYER01
370
     5
390
0
  6
Continuous
 62
     7
100
AcDbHatch
 10
0.0
 20
0.0
 30
0.0
210
0.0
220
0.0
230
1.0
  2
_L-O---1
 70
     1
 71
     1
 91
        1
 92
        2
 72
     0
 73
     1
 93
        0
 97
        1
330
3A0
 75
     0
 76
     0
 98
        0
  0
LWPOLYLINE
  5
3A2
102
{ACAD_REACTORS
330
3A3
102
}
100
AcDbEntity
  8
HATCH_REACTORS
390
0
100
AcDbPolyline
 90
        4
 70
     1
 10
-238.149902
 20
72.278442
 10
-238.149902
 20
72.307983
 10
-238.133301
 20
72.307983
 10
-238.133301
 20
72.278442
  0
HATCH
  5
3A3
100
AcDbEntity
  8
LAYER01
370
     5
390
0
  6
Continuous
 62
     7
100
AcDbHatch
 10
0.0
 20
0.0
 30
0.0
210
0.0
220
0.0
230
1.0
  2
_L-O---1
 70
     1
 71
     1
 91
        1
 92
        2
 72
     0
 73
     1
 93
        0
 97
        1
330
3A2
 75
     0
 76
     0
 98
        0
  0
LWPOLYLINE
  5
3A4
102
{ACAD_REACTORS
330
3A5
102
}
100
AcDbEntity
  8
HATCH_REACTORS
390
0
100
AcDbPolyline
 90
        4
 70
     1
 10
-238.168457
 20
72.307983
 10
-238.168457
 20
72.336304
 10
-238.149902
 20
72.336304
 10
-238.149902
 20
72.307983
  0
HATCH
  5
3A5
100
AcDbEntity
  8
LAYER01
370
     5
390
0
  6
Continuous
 62
     7
100
AcDbHatch
 10
0.0
 20
0.0
 30
0.0
210
0.0
220
0.0
230
1.0
  2
_L-O---1
 70
     1
 71
     1
 91
        1
 92
        2
 72
     0
 73
     1
 93
        0
 97
        1
330
3A4
 75
     0
 76
     0
 98
        0
  0
LWPOLYLINE
  5
3A6
102
{ACAD_REACTORS
330
3A7
102
}
100
AcDbEntity
  8
HATCH_REACTORS
390
0
100
AcDbPolyline
 90
        4
 70
     1
 10
-238.188477
 20
72.336304
 10
-238.188477
 20
72.363647
 10
-238.168457
 20
72.363647
 10
-238.168457
 20
72.336304
  0
HATCH
  5
3A7
100
AcDbEntity
  8
LAYER01
370
     5
390
0
  6
Continuous
 62
     7
100
AcDbHatch
 10
0.0
 20
0.0
 30
0.0
210
0.0
220
0.0
230
1.0
  2
_L-O---1
 70
     1
 71
     1
 91
        1
 92
        2
 72
     0
 73
     1
 93
        0
 97
        1
330
3A6
 75
     0
 76
     0
 98
        0
  0
LWPOLYLINE
  5
3A8
102
{ACAD_REACTORS
330
3A9
102
}
100
AcDbEntity
  8
HATCH_REACTORS
390
0
100
AcDbPolyline
 90
        4
 70
     1
 10
-238.209961
 20
72.363647
 10
-238.209961
 20
72.390015
 10
-238.188477
 20
72.390015
 10
-238.188477
 20
72.363647
  0
HATCH
  5
3A9
100
AcDbEntity
  8
LAYER01
370
     5
390
0
  6
Continuous
 62
     7
100
AcDbHatch
 10
0.0
 20
0.0
 30
0.0
210
0.0
220
0.0
230
1.0
  2
_L-O---1
 70
     1
 71
     1
 91
        1
 92
        2
 72
     0
 73
     1
 93
        0
 97
        1
330
3A8
 75
     0
 76
     0
 98
        0
  0
LWPOLYLINE
  5
3AA
102
{ACAD_REACTORS
330
3AB
102
}
100
AcDbEntity
  8
HATCH_REACTORS
390
0
100
AcDbPolyline
 90
        4
 70
     1
 10
-238.232422
 20
72.390015
 10
-238.232422
 20
72.414917
 10
-238.209961
 20
72.414917
 10
-238.209961
 20
72.390015
  0
HATCH
  5
3AB
100
AcDbEntity
  8
LAYER01
370
     5
390
0
  6
Continuous
 62
     7
100
AcDbHatch
 10
0.0
 20
0.0
 30
0.0
210
0.0
220
0.0
230
1.0
  2
_L-O---1
 70
     1
 71
     1
 91
        1
 92
        2
 72
     0
 73
     1
 93
        0
 97
        1
330
3AA
 75
     0
 76
     0
 98
        0
  0
LWPOLYLINE
  5
3AC
102
{ACAD_REACTORS
330
3AD
102
}
100
AcDbEntity
  8
HATCH_REACTORS
390
0
100
AcDbPolyline
 90
        4
 70
     1
 10
-238.256836
 20
72.414917
 10
-238.256836
 20
72.438599
 10
-238.232422
 20
72.438599
 10
-238.232422
 20
72.414917
  0
HATCH
  5
3AD
100
AcDbEntity
  8
LAYER01
370
     5
390
0
  6
Continuous
 62
     7
100
AcDbHatch
 10
0.0
 20
0.0
 30
0.0
210
0.0
220
0.0
230
1.0
  2
_L-O---1
 70
     1
 71
     1
 91
        1
 92
        2
 72
     0
 73
     1
 93
        0
 97
        1
330
3AC
 75
     0
 76
     0
 98
        0
  0
LWPOLYLINE
  5
3AE
102
{ACAD_REACTORS
330
3AF
102
}
100
AcDbEntity
  8
HATCH_REACTORS
390
0
100
AcDbPolyline
 90
        4
 70
     1
 10
-238.282227
 20
72.438599
 10
-238.282227
 20
72.46106
 10
-238.256836
 20
72.46106
 10
-238.256836
 20
72.438599
  0
HATCH
  5
3AF
100
AcDbEntity
  8
LAYER01
370
     5
390
0
  6
Continuous
 62
     7
100
AcDbHatch
 10
0.0
 20
0.0
 30
0.0
210
0.0
220
0.0
230
1.0
  2
_L-O---1
 70
     1
 71
     1
 91
        1
 92
        2
 72
     0
 73
     1
 93
        0
 97
        1
330
3AE
 75
     0
 76
     0
 98
        0
  0
LWPOLYLINE
  5
3B0
102
{ACAD_REACTORS
330
3B1
102
}
100
AcDbEntity
  8
HATCH_REACTORS
390
0
100
AcDbPolyline
 90
        4
 70
     1
 10
-238.308594
 20
72.46106
 10
-238.308594
 20
72.482056
 10
-238.282227
 20
72.482056
 10
-238.282227
 20
72.46106
  0
HATCH
  5
3B1
100
AcDbEntity
  8
LAYER01
370
     5
390
0
  6
Continuous
 62
     7
100
AcDbHatch
 10
0.0
 20
0.0
 30
0.0
210
0.0
220
0.0
230
1.0
  2
_L-O---1
 70
     1
 71
     1
 91
        1
 92
        2
 72
     0
 73
     1
 93
        0
 97
        1
330
3B0
 75
     0
 76
     0
 98
        0
  0
LWPOLYLINE
  5
3B2
102
{ACAD_REACTORS
330
3B3
102
}
100
AcDbEntity
  8
HATCH_REACTORS
390
0
100
AcDbPolyline
 90
        4
 70
     1
 10
-238.336426
 20
72.482056
 10
-238.336426
 20
72.501831
 10
-238.308594
 20
72.501831
 10
-238.308594
 20
72.482056
  0
HATCH
  5
3B3
100
AcDbEntity
  8
LAYER01
370
     5
390
0
  6
Continuous
 62
     7
100
AcDbHatch
 10
0.0
 20
0.0
 30
0.0
210
0.0
220
0.0
230
1.0
  2
_L-O---1
 70
     1
 71
     1
 91
        1
 92
        2
 72
     0
 73
     1
 93
        0
 97
        1
330
3B2
 75
     0
 76
     0
 98
        0
  0
LWPOLYLINE
  5
3B4
102
{ACAD_REACTORS
330
3B5
102
}
100
AcDbEntity
  8
HATCH_REACTORS
390
0
100
AcDbPolyline
 90
        4
 70
     1
 10
-238.364746
 20
72.501831
 10
-238.364746
 20
72.519653
 10
-238.336426
 20
72.519653
 10
-238.336426
 20
72.501831
  0
HATCH
  5
3B5
100
AcDbEntity
  8
LAYER01
370
     5
390
0
  6
Continuous
 62
     7
100
AcDbHatch
 10
0.0
 20
0.0
 30
0.0
210
0.0
220
0.0
230
1.0
  2
_L-O---1
 70
     1
 71
     1
 91
        1
 92
        2
 72
     0
 73
     1
 93
        0
 97
        1
330
3B4
 75
     0
 76
     0
 98
        0
  0
LWPOLYLINE
  5
3B6
102
{ACAD_REACTORS
330
3B7
102
}
100
AcDbEntity
  8
HATCH_REACTORS
390
0
100
AcDbPolyline
 90
        4
 70
     1
 10
-238.394531
 20
72.519653
 10
-238.394531
 20
72.536255
 10
-238.364746
 20
72.536255
 10
-238.364746
 20
72.519653
  0
HATCH
  5
3B7
100
AcDbEntity
  8
LAYER01
370
     5
390
0
  6
Continuous
 62
     7
100
AcDbHatch
 10
0.0
 20
0.0
 30
0.0
210
0.0
220
0.0
230
1.0
  2
_L-O---1
 70
     1
 71
     1
 91
        1
 92
        2
 72
     0
 73
     1
 93
        0
 97
        1
330
3B6
 75
     0
 76
     0
 98
        0
  0
LWPOLYLINE
  5
3B8
102
{ACAD_REACTORS
330
3B9
102
}
100
AcDbEntity
  8
HATCH_REACTORS
390
0
100
AcDbPolyline
 90
        4
 70
     1
 10
-238.424805
 20
72.536255
 10
-238.424805
 20
72.551147
 10
-238.394531
 20
72.551147
 10
-238.394531
 20
72.536255
  0
HATCH
  5
3B9
100
AcDbEntity
  8
LAYER01
370
     5
390
0
  6
Continuous
 62
     7
100
AcDbHatch
 10
0.0
 20
0.0
 30
0.0
210
0.0
220
0.0
230
1.0
  2
_L-O---1
 70
     1
 71
     1
 91
        1
 92
        2
 72
     0
 73
     1
 93
        0
 97
        1
330
3B8
 75
     0
 76
     0
 98
        0
  0
LWPOLYLINE
  5
3BA
102
{ACAD_REACTORS
330
3BB
102
}
100
AcDbEntity
  8
HATCH_REACTORS
390
0
100
AcDbPolyline
 90
        4
 70
     1
 10
-238.456055
 20
72.551147
 10
-238.456055
 20
72.564331
 10
-238.424805
 20
72.564331
 10
-238.424805
 20
72.551147
  0
HATCH
  5
3BB
100
AcDbEntity
  8
LAYER01
370
     5
390
0
  6
Continuous
 62
     7
100
AcDbHatch
 10
0.0
 20
0.0
 30
0.0
210
0.0
220
0.0
230
1.0
  2
_L-O---1
 70
     1
 71
     1
 91
        1
 92
        2
 72
     0
 73
     1
 93
        0
 97
        1
330
3BA
 75
     0
 76
     0
 98
        0
  0
LWPOLYLINE
  5
3BC
102
{ACAD_REACTORS
330
3BD
102
}
100
AcDbEntity
  8
HATCH_REACTORS
390
0
100
AcDbPolyline
 90
        4
 70
     1
 10
-238.487793
 20
72.564331
 10
-238.487793
 20
72.575562
 10
-238.456055
 20
72.575562
 10
-238.456055
 20
72.564331
  0
HATCH
  5
3BD
100
AcDbEntity
  8
LAYER01
370
     5
390
0
  6
Continuous
 62
     7
100
AcDbHatch
 10
0.0
 20
0.0
 30
0.0
210
0.0
220
0.0
230
1.0
  2
_L-O---1
 70
     1
 71
     1
 91
        1
 92
        2
 72
     0
 73
     1
 93
        0
 97
        1
330
3BC
 75
     0
 76
     0
 98
        0
  0
LWPOLYLINE
  5
3BE
102
{ACAD_REACTORS
330
3BF
102
}
100
AcDbEntity
  8
HATCH_REACTORS
390
0
100
AcDbPolyline
 90
        4
 70
     1
 10
-238.520508
 20
72.575562
 10
-238.520508
 20
72.585327
 10
-238.487793
 20
72.585327
 10
-238.487793
 20
72.575562
  0
HATCH
  5
3BF
100
AcDbEntity
  8
LAYER01
370
     5
390
0
  6
Continuous
 62
     7
100
AcDbHatch
 10
0.0
 20
0.0
 30
0.0
210
0.0
220
0.0
230
1.0
  2
_L-O---1
 70
     1
 71
     1
 91
        1
 92
        2
 72
     0
 73
     1
 93
        0
 97
        1
330
3BE
 75
     0
 76
     0
 98
        0
  0
LWPOLYLINE
  5
3C0
102
{ACAD_REACTORS
330
3C1
102
}
100
AcDbEntity
  8
HATCH_REACTORS
390
0
100
AcDbPolyline
 90
        4
 70
     1
 10
-238.553223
 20
72.585327
 10
-238.553223
 20
72.593384
 10
-238.520508
 20
72.593384
 10
-238.520508
 20
72.585327
  0
HATCH
  5
3C1
100
AcDbEntity
  8
LAYER01
370
     5
390
0
  6
Continuous
 62
     7
100
AcDbHatch
 10
0.0
 20
0.0
 30
0.0
210
0.0
220
0.0
230
1.0
  2
_L-O---1
 70
     1
 71
     1
 91
        1
 92
        2
 72
     0
 73
     1
 93
        0
 97
        1
330
3C0
 75
     0
 76
     0
 98
        0
  0
LWPOLYLINE
  5
3C2
102
{ACAD_REACTORS
330
3C3
102
}
100
AcDbEntity
  8
HATCH_REACTORS
390
0
100
AcDbPolyline
 90
        4
 70
     1
 10
-238.586426
 20
72.593384
 10
-238.586426
 20
72.599487
 10
-238.553223
 20
72.599487
 10
-238.553223
 20
72.593384
  0
HATCH
  5
3C3
100
AcDbEntity
  8
LAYER01
370
     5
390
0
  6
Continuous
 62
     7
100
AcDbHatch
 10
0.0
 20
0.0
 30
0.0
210
0.0
220
0.0
230
1.0
  2
_L-O---1
 70
     1
 71
     1
 91
        1
 92
        2
 72
     0
 73
     1
 93
        0
 97
        1
330
3C2
 75
     0
 76
     0
 98
        0
  0
LWPOLYLINE
  5
3C4
102
{ACAD_REACTORS
330
3C5
102
}
100
AcDbEntity
  8
HATCH_REACTORS
390
0
100
AcDbPolyline
 90
        4
 70
     1
 10
-238.620117
 20
72.599487
 10
-238.620117
 20
72.603882
 10
-238.586426
 20
72.603882
 10
-238.586426
 20
72.599487
  0
HATCH
  5
3C5
100
AcDbEntity
  8
LAYER01
370
     5
390
0
  6
Continuous
 62
     7
100
AcDbHatch
 10
0.0
 20
0.0
 30
0.0
210
0.0
220
0.0
230
1.0
  2
_L-O---1
 70
     1
 71
     1
 91
        1
 92
        2
 72
     0
 73
     1
 93
        0
 97
        1
330
3C4
 75
     0
 76
     0
 98
        0
  0
LWPOLYLINE
  5
3C6
102
{ACAD_REACTORS
330
3C7
102
}
100
AcDbEntity
  8
HATCH_REACTORS
390
0
100
AcDbPolyline
 90
        4
 70
     1
 10
-238.653809
 20
72.603882
 10
-238.653809
 20
72.606323
 10
-238.620117
 20
72.606323
 10
-238.620117
 20
72.603882
  0
HATCH
  5
3C7
100
AcDbEntity
  8
LAYER01
370
     5
390
0
  6
Continuous
 62
     7
100
AcDbHatch
 10
0.0
 20
0.0
 30
0.0
210
0.0
220
0.0
230
1.0
  2
_L-O---1
 70
     1
 71
     1
 91
        1
 92
        2
 72
     0
 73
     1
 93
        0
 97
        1
330
3C6
 75
     0
 76
     0
 98
        0
  0
LWPOLYLINE
  5
3C8
102
{ACAD_REACTORS
330
3C9
102
}
100
AcDbEntity
  8
HATCH_REACTORS
390
0
100
AcDbPolyline
 90
        4
 70
     1
 10
-238.6875
 20
72.606323
 10
-238.6875
 20
72.607056
 10
-238.653809
 20
72.607056
 10
-238.653809
 20
72.606323
  0
HATCH
  5
3C9
100
AcDbEntity
  8
LAYER01
370
     5
390
0
  6
Continuous
 62
     7
100
AcDbHatch
 10
0.0
 20
0.0
 30
0.0
210
0.0
220
0.0
230
1.0
  2
_L-O---1
 70
     1
 71
     1
 91
        1
 92
        2
 72
     0
 73
     1
 93
        0
 97
        1
330
3C8
 75
     0
 76
     0
 98
        0
  0
LWPOLYLINE
  5
3CA
102
{ACAD_REACTORS
330
3CB
102
}
100
AcDbEntity
  8
HATCH_REACTORS
390
0
100
AcDbPolyline
 90
        4
 70
     1
 10
-238.6875
 20
72.607056
 10
-238.6875
 20
72.605835
 10
-238.72168
 20
72.605835
 10
-238.72168
 20
72.607056
  0
HATCH
  5
3CB
100
AcDbEntity
  8
LAYER01
370
     5
390
0
  6
Continuous
 62
     7
100
AcDbHatch
 10
0.0
 20
0.0
 30
0.0
210
0.0
220
0.0
230
1.0
  2
_L-O---1
 70
     1
 71
     1
 91
        1
 92
        2
 72
     0
 73
     1
 93
        0
 97
        1
330
3CA
 75
     0
 76
     0
 98
        0
  0
LWPOLYLINE
  5
3CC
102
{ACAD_REACTORS
330
3CD
102
}
100
AcDbEntity
  8
HATCH_REACTORS
390
0
100
AcDbPolyline
 90
        4
 70
     1
 10
-238.72168
 20
72.605835
 10
-238.72168
 20
72.602905
 10
-238.755371
 20
72.602905
 10
-238.755371
 20
72.605835
  0
HATCH
  5
3CD
100
AcDbEntity
  8
LAYER01
370
     5
390
0
  6
Continuous
 62
     7
100
AcDbHatch
 10
0.0
 20
0.0
 30
0.0
210
0.0
220
0.0
230
1.0
  2
_L-O---1
 70
     1
 71
     1
 91
        1
 92
        2
 72
     0
 73
     1
 93
        0
 97
        1
330
3CC
 75
     0
 76
     0
 98
        0
  0
LWPOLYLINE
  5
3CE
102
{ACAD_REACTORS
330
3CF
102
}
100
AcDbEntity
  8
HATCH_REACTORS
390
0
100
AcDbPolyline
 90
        4
 70
     1
 10
-238.755371
 20
72.602905
 10
-238.755371
 20
72.598022
 10
-238.788574
 20
72.598022
 10
-238.788574
 20
72.602905
  0
HATCH
  5
3CF
100
AcDbEntity
  8
LAYER01
370
     5
390
0
  6
Continuous
 62
     7
100
AcDbHatch
 10
0.0
 20
0.0
 30
0.0
210
0.0
220
0.0
230
1.0
  2
_L-O---1
 70
     1
 71
     1
 91
        1
 92
        2
 72
     0
 73
     1
 93
        0
 97
        1
330
3CE
 75
     0
 76
     0
 98
        0
  0
LWPOLYLINE
  5
3D0
102
{ACAD_REACTORS
330
3D1
102
}
100
AcDbEntity
  8
HATCH_REACTORS
390
0
100
AcDbPolyline
 90
        4
 70
     1
 10
-238.788574
 20
72.598022
 10
-238.788574
 20
72.591431
 10
-238.821777
 20
72.591431
 10
-238.821777
 20
72.598022
  0
HATCH
  5
3D1
100
AcDbEntity
  8
LAYER01
370
     5
390
0
  6
Continuous
 62
     7
100
AcDbHatch
 10
0.0
 20
0.0
 30
0.0
210
0.0
220
0.0
230
1.0
  2
_L-O---1
 70
     1
 71
     1
 91
        1
 92
        2
 72
     0
 73
     1
 93
        0
 97
        1
330
3D0
 75
     0
 76
     0
 98
        0
  0
LWPOLYLINE
  5
3D2
102
{ACAD_REACTORS
330
3D3
102
}
100
AcDbEntity
  8
HATCH_REACTORS
390
0
100
AcDbPolyline
 90
        4
 70
     1
 10
-238.821777
 20
72.591431
 10
-238.821777
 20
72.58313
 10
-238.85498
 20
72.58313
 10
-238.85498
 20
72.591431
  0
HATCH
  5
3D3
100
AcDbEntity
  8
LAYER01
370
     5
390
0
  6
Continuous
 62
     7
100
AcDbHatch
 10
0.0
 20
0.0
 30
0.0
210
0.0
220
0.0
230
1.0
  2
_L-O---1
 70
     1
 71
     1
 91
        1
 92
        2
 72
     0
 73
     1
 93
        0
 97
        1
330
3D2
 75
     0
 76
     0
 98
        0
  0
LWPOLYLINE
  5
3D4
102
{ACAD_REACTORS
330
3D5
102
}
100
AcDbEntity
  8
HATCH_REACTORS
390
0
100
AcDbPolyline
 90
        4
 70
     1
 10
-238.85498
 20
72.58313
 10
-238.85498
 20
72.572876
 10
-238.887207
 20
72.572876
 10
-238.887207
 20
72.58313
  0
HATCH
  5
3D5
100
AcDbEntity
  8
LAYER01
370
     5
390
0
  6
Continuous
 62
     7
100
AcDbHatch
 10
0.0
 20
0.0
 30
0.0
210
0.0
220
0.0
230
1.0
  2
_L-O---1
 70
     1
 71
     1
 91
        1
 92
        2
 72
     0
 73
     1
 93
        0
 97
        1
330
3D4
 75
     0
 76
     0
 98
        0
  0
LWPOLYLINE
  5
3D6
102
{ACAD_REACTORS
330
3D7
102
}
100
AcDbEntity
  8
HATCH_REACTORS
390
0
100
AcDbPolyline
 90
        4
 70
     1
 10
-238.887207
 20
72.572876
 10
-238.887207
 20
72.561157
 10
-238.918945
 20
72.561157
 10
-238.918945
 20
72.572876
  0
HATCH
  5
3D7
100
AcDbEntity
  8
LAYER01
370
     5
390
0
  6
Continuous
 62
     7
100
AcDbHatch
 10
0.0
 20
0.0
 30
0.0
210
0.0
220
0.0
230
1.0
  2
_L-O---1
 70
     1
 71
     1
 91
        1
 92
        2
 72
     0
 73
     1
 93
        0
 97
        1
330
3D6
 75
     0
 76
     0
 98
        0
  0
LWPOLYLINE
  5
3D8
102
{ACAD_REACTORS
330
3D9
102
}
100
AcDbEntity
  8
HATCH_REACTORS
390
0
100
AcDbPolyline
 90
        4
 70
     1
 10
-238.918945
 20
72.561157
 10
-238.918945
 20
72.547485
 10
-238.949707
 20
72.547485
 10
-238.949707
 20
72.561157
  0
HATCH
  5
3D9
100
AcDbEntity
  8
LAYER01
370
     5
390
0
  6
Continuous
 62
     7
100
AcDbHatch
 10
0.0
 20
0.0
 30
0.0
210
0.0
220
0.0
230
1.0
  2
_L-O---1
 70
     1
 71
     1
 91
        1
 92
        2
 72
     0
 73
     1
 93
        0
 97
        1
330
3D8
 75
     0
 76
     0
 98
        0
  0
LWPOLYLINE
  5
3DA
102
{ACAD_REACTORS
330
3DB
102
}
100
AcDbEntity
  8
HATCH_REACTORS
390
0
100
AcDbPolyline
 90
        4
 70
     1
 10
-238.949707
 20
72.547485
 10
-238.949707
 20
72.532104
 10
-238.97998
 20
72.532104
 10
-238.97998
 20
72.547485
  0
HATCH
  5
3DB
100
AcDbEntity
  8
LAYER01
370
     5
390
0
  6
Continuous
 62
     7
100
AcDbHatch
 10
0.0
 20
0.0
 30
0.0
210
0.0
220
0.0
230
1.0
  2
_L-O---1
 70
     1
 71
     1
 91
        1
 92
        2
 72
     0
 73
     1
 93
        0
 97
        1
330
3DA
 75
     0
 76
     0
 98
        0
  0
LWPOLYLINE
  5
3DC
102
{ACAD_REACTORS
330
3DD
102
}
100
AcDbEntity
  8
HATCH_REACTORS
390
0
100
AcDbPolyline
 90
        4
 70
     1
 10
-238.97998
 20
72.532104
 10
-238.97998
 20
72.515259
 10
-239.009277
 20
72.515259
 10
-239.009277
 20
72.532104
  0
HATCH
  5
3DD
100
AcDbEntity
  8
LAYER01
370
     5
390
0
  6
Continuous
 62
     7
100
AcDbHatch
 10
0.0
 20
0.0
 30
0.0
210
0.0
220
0.0
230
1.0
  2
_L-O---1
 70
     1
 71
     1
 91
        1
 92
        2
 72
     0
 73
     1
 93
        0
 97
        1
330
3DC
 75
     0
 76
     0
 98
        0
  0
LWPOLYLINE
  5
3DE
102
{ACAD_REACTORS
330
3DF
102
}
100
AcDbEntity
  8
HATCH_REACTORS
390
0
100
AcDbPolyline
 90
        4
 70
     1
 10
-239.009277
 20
72.515259
 10
-239.009277
 20
72.496948
 10
-239.037598
 20
72.496948
 10
-239.037598
 20
72.515259
  0
HATCH
  5
3DF
100
AcDbEntity
  8
LAYER01
370
     5
390
0
  6
Continuous
 62
     7
100
AcDbHatch
 10
0.0
 20
0.0
 30
0.0
210
0.0
220
0.0
230
1.0
  2
_L-O---1
 70
     1
 71
     1
 91
        1
 92
        2
 72
     0
 73
     1
 93
        0
 97
        1
330
3DE
 75
     0
 76
     0
 98
        0
  0
LWPOLYLINE
  5
3E0
102
{ACAD_REACTORS
330
3E1
102
}
100
AcDbEntity
  8
HATCH_REACTORS
390
0
100
AcDbPolyline
 90
        4
 70
     1
 10
-239.037598
 20
72.496948
 10
-239.037598
 20
72.476929
 10
-239.064941
 20
72.476929
 10
-239.064941
 20
72.496948
  0
HATCH
  5
3E1
100
AcDbEntity
  8
LAYER01
370
     5
390
0
  6
Continuous
 62
     7
100
AcDbHatch
 10
0.0
 20
0.0
 30
0.0
210
0.0
220
0.0
230
1.0
  2
_L-O---1
 70
     1
 71
     1
 91
        1
 92
        2
 72
     0
 73
     1
 93
        0
 97
        1
330
3E0
 75
     0
 76
     0
 98
        0
  0
LWPOLYLINE
  5
3E2
102
{ACAD_REACTORS
330
3E3
102
}
100
AcDbEntity
  8
HATCH_REACTORS
390
0
100
AcDbPolyline
 90
        4
 70
     1
 10
-239.064941
 20
72.476929
 10
-239.064941
 20
72.455688
 10
-239.091309
 20
72.455688
 10
-239.091309
 20
72.476929
  0
HATCH
  5
3E3
100
AcDbEntity
  8
LAYER01
370
     5
390
0
  6
Continuous
 62
     7
100
AcDbHatch
 10
0.0
 20
0.0
 30
0.0
210
0.0
220
0.0
230
1.0
  2
_L-O---1
 70
     1
 71
     1
 91
        1
 92
        2
 72
     0
 73
     1
 93
        0
 97
        1
330
3E2
 75
     0
 76
     0
 98
        0
  0
LWPOLYLINE
  5
3E4
102
{ACAD_REACTORS
330
3E5
102
}
100
AcDbEntity
  8
HATCH_REACTORS
390
0
100
AcDbPolyline
 90
        4
 70
     1
 10
-239.091309
 20
72.455688
 10
-239.091309
 20
72.432739
 10
-239.116211
 20
72.432739
 10
-239.116211
 20
72.455688
  0
HATCH
  5
3E5
100
AcDbEntity
  8
LAYER01
370
     5
390
0
  6
Continuous
 62
     7
100
AcDbHatch
 10
0.0
 20
0.0
 30
0.0
210
0.0
220
0.0
230
1.0
  2
_L-O---1
 70
     1
 71
     1
 91
        1
 92
        2
 72
     0
 73
     1
 93
        0
 97
        1
330
3E4
 75
     0
 76
     0
 98
        0
  0
LWPOLYLINE
  5
3E6
102
{ACAD_REACTORS
330
3E7
102
}
100
AcDbEntity
  8
HATCH_REACTORS
390
0
100
AcDbPolyline
 90
        4
 70
     1
 10
-239.116211
 20
72.432739
 10
-239.116211
 20
72.408813
 10
-239.140137
 20
72.408813
 10
-239.140137
 20
72.432739
  0
HATCH
  5
3E7
100
AcDbEntity
  8
LAYER01
370
     5
390
0
  6
Continuous
 62
     7
100
AcDbHatch
 10
0.0
 20
0.0
 30
0.0
210
0.0
220
0.0
230
1.0
  2
_L-O---1
 70
     1
 71
     1
 91
        1
 92
        2
 72
     0
 73
     1
 93
        0
 97
        1
330
3E6
 75
     0
 76
     0
 98
        0
  0
LWPOLYLINE
  5
3E8
102
{ACAD_REACTORS
330
3E9
102
}
100
AcDbEntity
  8
HATCH_REACTORS
390
0
100
AcDbPolyline
 90
        4
 70
     1
 10
-239.140137
 20
72.408813
 10
-239.140137
 20
72.383423
 10
-239.162598
 20
72.383423
 10
-239.162598
 20
72.408813
  0
HATCH
  5
3E9
100
AcDbEntity
  8
LAYER01
370
     5
390
0
  6
Continuous
 62
     7
100
AcDbHatch
 10
0.0
 20
0.0
 30
0.0
210
0.0
220
0.0
230
1.0
  2
_L-O---1
 70
     1
 71
     1
 91
        1
 92
        2
 72
     0
 73
     1
 93
        0
 97
        1
330
3E8
 75
     0
 76
     0
 98
        0
  0
LWPOLYLINE
  5
3EA
102
{ACAD_REACTORS
330
3EB
102
}
100
AcDbEntity
  8
HATCH_REACTORS
390
0
100
AcDbPolyline
 90
        4
 70
     1
 10
-239.162598
 20
72.383423
 10
-239.162598
 20
72.356812
 10
-239.183594
 20
72.356812
 10
-239.183594
 20
72.383423
  0
HATCH
  5
3EB
100
AcDbEntity
  8
LAYER01
370
     5
390
0
  6
Continuous
 62
     7
100
AcDbHatch
 10
0.0
 20
0.0
 30
0.0
210
0.0
220
0.0
230
1.0
  2
_L-O---1
 70
     1
 71
     1
 91
        1
 92
        2
 72
     0
 73
     1
 93
        0
 97
        1
330
3EA
 75
     0
 76
     0
 98
        0
  0
LWPOLYLINE
  5
3EC
102
{ACAD_REACTORS
330
3ED
102
}
100
AcDbEntity
  8
HATCH_REACTORS
390
0
100
AcDbPolyline
 90
        4
 70
     1
 10
-239.183594
 20
72.356812
 10
-239.183594
 20
72.329224
 10
-239.203125
 20
72.329224
 10
-239.203125
 20
72.356812
  0
HATCH
  5
3ED
100
AcDbEntity
  8
LAYER01
370
     5
390
0
  6
Continuous
 62
     7
100
AcDbHatch
 10
0.0
 20
0.0
 30
0.0
210
0.0
220
0.0
230
1.0
  2
_L-O---1
 70
     1
 71
     1
 91
        1
 92
        2
 72
     0
 73
     1
 93
        0
 97
        1
330
3EC
 75
     0
 76
     0
 98
        0
  0
LWPOLYLINE
  5
3EE
102
{ACAD_REACTORS
330
3EF
102
}
100
AcDbEntity
  8
HATCH_REACTORS
390
0
100
AcDbPolyline
 90
        4
 70
     1
 10
-239.203125
 20
72.329224
 10
-239.203125
 20
72.300659
 10
-239.221191
 20
72.300659
 10
-239.221191
 20
72.329224
  0
HATCH
  5
3EF
100
AcDbEntity
  8
LAYER01
370
     5
390
0
  6
Continuous
 62
     7
100
AcDbHatch
 10
0.0
 20
0.0
 30
0.0
210
0.0
220
0.0
230
1.0
  2
_L-O---1
 70
     1
 71
     1
 91
        1
 92
        2
 72
     0
 73
     1
 93
        0
 97
        1
330
3EE
 75
     0
 76
     0
 98
        0
  0
LWPOLYLINE
  5
3F0
102
{ACAD_REACTORS
330
3F1
102
}
100
AcDbEntity
  8
HATCH_REACTORS
390
0
100
AcDbPolyline
 90
        4
 70
     1
 10
-239.221191
 20
72.300659
 10
-239.221191
 20
72.271118
 10
-239.237793
 20
72.271118
 10
-239.237793
 20
72.300659
  0
HATCH
  5
3F1
100
AcDbEntity
  8
LAYER01
370
     5
390
0
  6
Continuous
 62
     7
100
AcDbHatch
 10
0.0
 20
0.0
 30
0.0
210
0.0
220
0.0
230
1.0
  2
_L-O---1
 70
     1
 71
     1
 91
        1
 92
        2
 72
     0
 73
     1
 93
        0
 97
        1
330
3F0
 75
     0
 76
     0
 98
        0
  0
LWPOLYLINE
  5
3F2
102
{ACAD_REACTORS
330
3F3
102
}
100
AcDbEntity
  8
HATCH_REACTORS
390
0
100
AcDbPolyline
 90
        4
 70
     1
 10
-239.237793
 20
72.271118
 10
-239.237793
 20
72.240601
 10
-239.252441
 20
72.240601
 10
-239.252441
 20
72.271118
  0
HATCH
  5
3F3
100
AcDbEntity
  8
LAYER01
370
     5
390
0
  6
Continuous
 62
     7
100
AcDbHatch
 10
0.0
 20
0.0
 30
0.0
210
0.0
220
0.0
230
1.0
  2
_L-O---1
 70
     1
 71
     1
 91
        1
 92
        2
 72
     0
 73
     1
 93
        0
 97
        1
330
3F2
 75
     0
 76
     0
 98
        0
  0
LWPOLYLINE
  5
3F4
102
{ACAD_REACTORS
330
3F5
102
}
100
AcDbEntity
  8
HATCH_REACTORS
390
0
100
AcDbPolyline
 90
        4
 70
     1
 10
-239.252441
 20
72.240601
 10
-239.252441
 20
72.209351
 10
-239.265625
 20
72.209351
 10
-239.265625
 20
72.240601
  0
HATCH
  5
3F5
100
AcDbEntity
  8
LAYER01
370
     5
390
0
  6
Continuous
 62
     7
100
AcDbHatch
 10
0.0
 20
0.0
 30
0.0
210
0.0
220
0.0
230
1.0
  2
_L-O---1
 70
     1
 71
     1
 91
        1
 92
        2
 72
     0
 73
     1
 93
        0
 97
        1
330
3F4
 75
     0
 76
     0
 98
        0
  0
LWPOLYLINE
  5
3F6
102
{ACAD_REACTORS
330
3F7
102
}
100
AcDbEntity
  8
HATCH_REACTORS
390
0
100
AcDbPolyline
 90
        4
 70
     1
 10
-239.265625
 20
72.209351
 10
-239.265625
 20
72.177612
 10
-239.276855
 20
72.177612
 10
-239.276855
 20
72.209351
  0
HATCH
  5
3F7
100
AcDbEntity
  8
LAYER01
370
     5
390
0
  6
Continuous
 62
     7
100
AcDbHatch
 10
0.0
 20
0.0
 30
0.0
210
0.0
220
0.0
230
1.0
  2
_L-O---1
 70
     1
 71
     1
 91
        1
 92
        2
 72
     0
 73
     1
 93
        0
 97
        1
330
3F6
 75
     0
 76
     0
 98
        0
  0
LWPOLYLINE
  5
3F8
102
{ACAD_REACTORS
330
3F9
102
}
100
AcDbEntity
  8
HATCH_REACTORS
390
0
100
AcDbPolyline
 90
        4
 70
     1
 10
-239.276855
 20
72.177612
 10
-239.276855
 20
72.145142
 10
-239.286621
 20
72.145142
 10
-239.286621
 20
72.177612
  0
HATCH
  5
3F9
100
AcDbEntity
  8
LAYER01
370
     5
390
0
  6
Continuous
 62
     7
100
AcDbHatch
 10
0.0
 20
0.0
 30
0.0
210
0.0
220
0.0
230
1.0
  2
_L-O---1
 70
     1
 71
     1
 91
        1
 92
        2
 72
     0
 73
     1
 93
        0
 97
        1
330
3F8
 75
     0
 76
     0
 98
        0
  0
LWPOLYLINE
  5
3FA
102
{ACAD_REACTORS
330
3FB
102
}
100
AcDbEntity
  8
HATCH_REACTORS
390
0
100
AcDbPolyline
 90
        4
 70
     1
 10
-239.286621
 20
72.145142
 10
-239.286621
 20
72.112183
 10
-239.294922
 20
72.112183
 10
-239.294922
 20
72.145142
  0
HATCH
  5
3FB
100
AcDbEntity
  8
LAYER01
370
     5
390
0
  6
Continuous
 62
     7
100
AcDbHatch
 10
0.0
 20
0.0
 30
0.0
210
0.0
220
0.0
230
1.0
  2
_L-O---1
 70
     1
 71
     1
 91
        1
 92
        2
 72
     0
 73
     1
 93
        0
 97
        1
330
3FA
 75
     0
 76
     0
 98
        0
  0
LWPOLYLINE
  5
3FC
102
{ACAD_REACTORS
330
3FD
102
}
100
AcDbEntity
  8
HATCH_REACTORS
390
0
100
AcDbPolyline
 90
        4
 70
     1
 10
-239.294922
 20
72.112183
 10
-239.294922
 20
72.078979
 10
-239.300781
 20
72.078979
 10
-239.300781
 20
72.112183
  0
HATCH
  5
3FD
100
AcDbEntity
  8
LAYER01
370
     5
390
0
  6
Continuous
 62
     7
100
AcDbHatch
 10
0.0
 20
0.0
 30
0.0
210
0.0
220
0.0
230
1.0
  2
_L-O---1
 70
     1
 71
     1
 91
        1
 92
        2
 72
     0
 73
     1
 93
        0
 97
        1
330
3FC
 75
     0
 76
     0
 98
        0
  0
LWPOLYLINE
  5
3FE
102
{ACAD_REACTORS
330
3FF
102
}
100
AcDbEntity
  8
HATCH_REACTORS
390
0
100
AcDbPolyline
 90
        4
 70
     1
 10
-239.300781
 20
72.078979
 10
-239.300781
 20
72.045288
 10
-239.305176
 20
72.045288
 10
-239.305176
 20
72.078979
  0
HATCH
  5
3FF
100
AcDbEntity
  8
LAYER01
370
     5
390
0
  6
Continuous
 62
     7
100
AcDbHatch
 10
0.0
 20
0.0
 30
0.0
210
0.0
220
0.0
230
1.0
  2
_L-O---1
 70
     1
 71
     1
 91
        1
 92
        2
 72
     0
 73
     1
 93
        0
 97
        1
330
3FE
 75
     0
 76
     0
 98
        0
  0
LWPOLYLINE
  5
400
102
{ACAD_REACTORS
330
401
102
}
100
AcDbEntity
  8
HATCH_REACTORS
390
0
100
AcDbPolyline
 90
        4
 70
     1
 10
-239.305176
 20
72.045288
 10
-239.305176
 20
72.011597
 10
-239.307617
 20
72.011597
 10
-239.307617
 20
72.045288
  0
HATCH
  5
401
100
AcDbEntity
  8
LAYER01
370
     5
390
0
  6
Continuous
 62
     7
100
AcDbHatch
 10
0.0
 20
0.0
 30
0.0
210
0.0
220
0.0
230
1.0
  2
_L-O---1
 70
     1
 71
     1
 91
        1
 92
        2
 72
     0
 73
     1
 93
        0
 97
        1
330
400
 75
     0
 76
     0
 98
        0
  0
LWPOLYLINE
  5
402
102
{ACAD_REACTORS
330
403
102
}
100
AcDbEntity
  8
HATCH_REACTORS
390
0
100
AcDbPolyline
 90
        4
 70
     1
 10
-239.307617
 20
72.011597
 10
-239.307617
 20
71.977661
 10
-239.308594
 20
71.977661
 10
-239.308594
 20
72.011597
  0
HATCH
  5
403
100
AcDbEntity
  8
LAYER01
370
     5
390
0
  6
Continuous
 62
     7
100
AcDbHatch
 10
0.0
 20
0.0
 30
0.0
210
0.0
220
0.0
230
1.0
  2
_L-O---1
 70
     1
 71
     1
 91
        1
 92
        2
 72
     0
 73
     1
 93
        0
 97
        1
330
402
 75
     0
 76
     0
 98
        0
  0
LWPOLYLINE
  5
404
102
{ACAD_REACTORS
330
405
102
}
100
AcDbEntity
  8
HATCH_REACTORS
390
0
100
AcDbPolyline
 90
        4
 70
     1
 10
-239.307129
 20
71.977661
 10
-239.307129
 20
71.94397
 10
-239.308594
 20
71.94397
 10
-239.308594
 20
71.977661
  0
HATCH
  5
405
100
AcDbEntity
  8
LAYER01
370
     5
390
0
  6
Continuous
 62
     7
100
AcDbHatch
 10
0.0
 20
0.0
 30
0.0
210
0.0
220
0.0
230
1.0
  2
_L-O---1
 70
     1
 71
     1
 91
        1
 92
        2
 72
     0
 73
     1
 93
        0
 97
        1
330
404
 75
     0
 76
     0
 98
        0
  0
LWPOLYLINE
  5
406
102
{ACAD_REACTORS
330
407
102
}
100
AcDbEntity
  8
HATCH_REACTORS
390
0
100
AcDbPolyline
 90
        4
 70
     1
 10
-239.304199
 20
71.94397
 10
-239.304199
 20
71.910278
 10
-239.307129
 20
71.910278
 10
-239.307129
 20
71.94397
  0
HATCH
  5
407
100
AcDbEntity
  8
LAYER01
370
     5
390
0
  6
Continuous
 62
     7
100
AcDbHatch
 10
0.0
 20
0.0
 30
0.0
210
0.0
220
0.0
230
1.0
  2
_L-O---1
 70
     1
 71
     1
 91
        1
 92
        2
 72
     0
 73
     1
 93
        0
 97
        1
330
406
 75
     0
 76
     0
 98
        0
  0
LWPOLYLINE
  5
408
102
{ACAD_REACTORS
330
409
102
}
100
AcDbEntity
  8
HATCH_REACTORS
390
0
100
AcDbPolyline
 90
        4
 70
     1
 10
-239.299316
 20
71.910278
 10
-239.299316
 20
71.876587
 10
-239.304199
 20
71.876587
 10
-239.304199
 20
71.910278
  0
HATCH
  5
409
100
AcDbEntity
  8
LAYER01
370
     5
390
0
  6
Continuous
 62
     7
100
AcDbHatch
 10
0.0
 20
0.0
 30
0.0
210
0.0
220
0.0
230
1.0
  2
_L-O---1
 70
     1
 71
     1
 91
        1
 92
        2
 72
     0
 73
     1
 93
        0
 97
        1
330
408
 75
     0
 76
     0
 98
        0
  0
LWPOLYLINE
  5
40A
102
{ACAD_REACTORS
330
40B
102
}
100
AcDbEntity
  8
HATCH_REACTORS
390
0
100
AcDbPolyline
 90
        4
 70
     1
 10
-239.292969
 20
71.876587
 10
-239.292969
 20
71.843384
 10
-239.299316
 20
71.843384
 10
-239.299316
 20
71.876587
  0
HATCH
  5
40B
100
AcDbEntity
  8
LAYER01
370
     5
390
0
  6
Continuous
 62
     7
100
AcDbHatch
 10
0.0
 20
0.0
 30
0.0
210
0.0
220
0.0
230
1.0
  2
_L-O---1
 70
     1
 71
     1
 91
        1
 92
        2
 72
     0
 73
     1
 93
        0
 97
        1
330
40A
 75
     0
 76
     0
 98
        0
  0
LWPOLYLINE
  5
40C
102
{ACAD_REACTORS
330
40D
102
}
100
AcDbEntity
  8
HATCH_REACTORS
390
0
100
AcDbPolyline
 90
        4
 70
     1
 10
-239.284668
 20
71.843384
 10
-239.284668
 20
71.810669
 10
-239.292969
 20
71.810669
 10
-239.292969
 20
71.843384
  0
HATCH
  5
40D
100
AcDbEntity
  8
LAYER01
370
     5
390
0
  6
Continuous
 62
     7
100
AcDbHatch
 10
0.0
 20
0.0
 30
0.0
210
0.0
220
0.0
230
1.0
  2
_L-O---1
 70
     1
 71
     1
 91
        1
 92
        2
 72
     0
 73
     1
 93
        0
 97
        1
330
40C
 75
     0
 76
     0
 98
        0
  0
LWPOLYLINE
  5
40E
102
{ACAD_REACTORS
330
40F
102
}
100
AcDbEntity
  8
HATCH_REACTORS
390
0
100
AcDbPolyline
 90
        4
 70
     1
 10
-239.274414
 20
71.810669
 10
-239.274414
 20
71.778442
 10
-239.284668
 20
71.778442
 10
-239.284668
 20
71.810669
  0
HATCH
  5
40F
100
AcDbEntity
  8
LAYER01
370
     5
390
0
  6
Continuous
 62
     7
100
AcDbHatch
 10
0.0
 20
0.0
 30
0.0
210
0.0
220
0.0
230
1.0
  2
_L-O---1
 70
     1
 71
     1
 91
        1
 92
        2
 72
     0
 73
     1
 93
        0
 97
        1
330
40E
 75
     0
 76
     0
 98
        0
  0
LWPOLYLINE
  5
410
102
{ACAD_REACTORS
330
411
102
}
100
AcDbEntity
  8
HATCH_REACTORS
390
0
100
AcDbPolyline
 90
        4
 70
     1
 10
-239.262207
 20
71.778442
 10
-239.262207
 20
71.746704
 10
-239.274414
 20
71.746704
 10
-239.274414
 20
71.778442
  0
HATCH
  5
411
100
AcDbEntity
  8
LAYER01
370
     5
390
0
  6
Continuous
 62
     7
100
AcDbHatch
 10
0.0
 20
0.0
 30
0.0
210
0.0
220
0.0
230
1.0
  2
_L-O---1
 70
     1
 71
     1
 91
        1
 92
        2
 72
     0
 73
     1
 93
        0
 97
        1
330
410
 75
     0
 76
     0
 98
        0
  0
LWPOLYLINE
  5
412
102
{ACAD_REACTORS
330
413
102
}
100
AcDbEntity
  8
HATCH_REACTORS
390
0
100
AcDbPolyline
 90
        4
 70
     1
 10
-239.249023
 20
71.746704
 10
-239.249023
 20
71.715698
 10
-239.262207
 20
71.715698
 10
-239.262207
 20
71.746704
  0
HATCH
  5
413
100
AcDbEntity
  8
LAYER01
370
     5
390
0
  6
Continuous
 62
     7
100
AcDbHatch
 10
0.0
 20
0.0
 30
0.0
210
0.0
220
0.0
230
1.0
  2
_L-O---1
 70
     1
 71
     1
 91
        1
 92
        2
 72
     0
 73
     1
 93
        0
 97
        1
330
412
 75
     0
 76
     0
 98
        0
  0
LWPOLYLINE
  5
414
102
{ACAD_REACTORS
330
415
102
}
100
AcDbEntity
  8
HATCH_REACTORS
390
0
100
AcDbPolyline
 90
        4
 70
     1
 10
-239.233398
 20
71.715698
 10
-239.233398
 20
71.685425
 10
-239.249023
 20
71.685425
 10
-239.249023
 20
71.715698
  0
HATCH
  5
415
100
AcDbEntity
  8
LAYER01
370
     5
390
0
  6
Continuous
 62
     7
100
AcDbHatch
 10
0.0
 20
0.0
 30
0.0
210
0.0
220
0.0
230
1.0
  2
_L-O---1
 70
     1
 71
     1
 91
        1
 92
        2
 72
     0
 73
     1
 93
        0
 97
        1
330
414
 75
     0
 76
     0
 98
        0
  0
LWPOLYLINE
  5
416
102
{ACAD_REACTORS
330
417
102
}
100
AcDbEntity
  8
HATCH_REACTORS
390
0
100
AcDbPolyline
 90
        4
 70
     1
 10
-239.216797
 20
71.685425
 10
-239.216797
 20
71.656128
 10
-239.233398
 20
71.656128
 10
-239.233398
 20
71.685425
  0
HATCH
  5
417
100
AcDbEntity
  8
LAYER01
370
     5
390
0
  6
Continuous
 62
     7
100
AcDbHatch
 10
0.0
 20
0.0
 30
0.0
210
0.0
220
0.0
230
1.0
  2
_L-O---1
 70
     1
 71
     1
 91
        1
 92
        2
 72
     0
 73
     1
 93
        0
 97
        1
330
416
 75
     0
 76
     0
 98
        0
  0
LWPOLYLINE
  5
418
102
{ACAD_REACTORS
330
419
102
}
100
AcDbEntity
  8
HATCH_REACTORS
390
0
100
AcDbPolyline
 90
        4
 70
     1
 10
-239.198242
 20
71.656128
 10
-239.198242
 20
71.627808
 10
-239.216797
 20
71.627808
 10
-239.216797
 20
71.656128
  0
HATCH
  5
419
100
AcDbEntity
  8
LAYER01
370
     5
390
0
  6
Continuous
 62
     7
100
AcDbHatch
 10
0.0
 20
0.0
 30
0.0
210
0.0
220
0.0
230
1.0
  2
_L-O---1
 70
     1
 71
     1
 91
        1
 92
        2
 72
     0
 73
     1
 93
        0
 97
        1
330
418
 75
     0
 76
     0
 98
        0
  0
LWPOLYLINE
  5
41A
102
{ACAD_REACTORS
330
41B
102
}
100
AcDbEntity
  8
HATCH_REACTORS
390
0
100
AcDbPolyline
 90
        4
 70
     1
 10
-239.178223
 20
71.627808
 10
-239.178223
 20
71.600464
 10
-239.198242
 20
71.600464
 10
-239.198242
 20
71.627808
  0
HATCH
  5
41B
100
AcDbEntity
  8
LAYER01
370
     5
390
0
  6
Continuous
 62
     7
100
AcDbHatch
 10
0.0
 20
0.0
 30
0.0
210
0.0
220
0.0
230
1.0
  2
_L-O---1
 70
     1
 71
     1
 91
        1
 92
        2
 72
     0
 73
     1
 93
        0
 97
        1
330
41A
 75
     0
 76
     0
 98
        0
  0
LWPOLYLINE
  5
41C
102
{ACAD_REACTORS
330
41D
102
}
100
AcDbEntity
  8
HATCH_REACTORS
390
0
100
AcDbPolyline
 90
        4
 70
     1
 10
-239.157227
 20
71.600464
 10
-239.157227
 20
71.574097
 10
-239.178223
 20
71.574097
 10
-239.178223
 20
71.600464
  0
HATCH
  5
41D
100
AcDbEntity
  8
LAYER01
370
     5
390
0
  6
Continuous
 62
     7
100
AcDbHatch
 10
0.0
 20
0.0
 30
0.0
210
0.0
220
0.0
230
1.0
  2
_L-O---1
 70
     1
 71
     1
 91
        1
 92
        2
 72
     0
 73
     1
 93
        0
 97
        1
330
41C
 75
     0
 76
     0
 98
        0
  0
LWPOLYLINE
  5
41E
102
{ACAD_REACTORS
330
41F
102
}
100
AcDbEntity
  8
HATCH_REACTORS
390
0
100
AcDbPolyline
 90
        4
 70
     1
 10
-239.134277
 20
71.574097
 10
-239.134277
 20
71.549194
 10
-239.157227
 20
71.549194
 10
-239.157227
 20
71.574097
  0
HATCH
  5
41F
100
AcDbEntity
  8
LAYER01
370
     5
390
0
  6
Continuous
 62
     7
100
AcDbHatch
 10
0.0
 20
0.0
 30
0.0
210
0.0
220
0.0
230
1.0
  2
_L-O---1
 70
     1
 71
     1
 91
        1
 92
        2
 72
     0
 73
     1
 93
        0
 97
        1
330
41E
 75
     0
 76
     0
 98
        0
  0
LWPOLYLINE
  5
420
102
{ACAD_REACTORS
330
421
102
}
100
AcDbEntity
  8
HATCH_REACTORS
390
0
100
AcDbPolyline
 90
        4
 70
     1
 10
-239.110352
 20
71.549194
 10
-239.110352
 20
71.525269
 10
-239.134277
 20
71.525269
 10
-239.134277
 20
71.549194
  0
HATCH
  5
421
100
AcDbEntity
  8
LAYER01
370
     5
390
0
  6
Continuous
 62
     7
100
AcDbHatch
 10
0.0
 20
0.0
 30
0.0
210
0.0
220
0.0
230
1.0
  2
_L-O---1
 70
     1
 71
     1
 91
        1
 92
        2
 72
     0
 73
     1
 93
        0
 97
        1
330
420
 75
     0
 76
     0
 98
        0
  0
LWPOLYLINE
  5
422
102
{ACAD_REACTORS
330
423
102
}
100
AcDbEntity
  8
HATCH_REACTORS
390
0
100
AcDbPolyline
 90
        4
 70
     1
 10
-239.084961
 20
71.525269
 10
-239.084961
 20
71.502808
 10
-239.110352
 20
71.502808
 10
-239.110352
 20
71.525269
  0
HATCH
  5
423
100
AcDbEntity
  8
LAYER01
370
     5
390
0
  6
Continuous
 62
     7
100
AcDbHatch
 10
0.0
 20
0.0
 30
0.0
210
0.0
220
0.0
230
1.0
  2
_L-O---1
 70
     1
 71
     1
 91
        1
 92
        2
 72
     0
 73
     1
 93
        0
 97
        1
330
422
 75
     0
 76
     0
 98
        0
  0
LWPOLYLINE
  5
424
102
{ACAD_REACTORS
330
425
102
}
100
AcDbEntity
  8
HATCH_REACTORS
390
0
100
AcDbPolyline
 90
        4
 70
     1
 10
-239.058105
 20
71.502808
 10
-239.058105
 20
71.481812
 10
-239.084961
 20
71.481812
 10
-239.084961
 20
71.502808
  0
HATCH
  5
425
100
AcDbEntity
  8
LAYER01
370
     5
390
0
  6
Continuous
 62
     7
100
AcDbHatch
 10
0.0
 20
0.0
 30
0.0
210
0.0
220
0.0
230
1.0
  2
_L-O---1
 70
     1
 71
     1
 91
        1
 92
        2
 72
     0
 73
     1
 93
        0
 97
        1
330
424
 75
     0
 76
     0
 98
        0
  0
LWPOLYLINE
  5
426
102
{ACAD_REACTORS
330
427
102
}
100
AcDbEntity
  8
HATCH_REACTORS
390
0
100
AcDbPolyline
 90
        4
 70
     1
 10
-239.030762
 20
71.481812
 10
-239.030762
 20
71.46228
 10
-239.058105
 20
71.46228
 10
-239.058105
 20
71.481812
  0
HATCH
  5
427
100
AcDbEntity
  8
LAYER01
370
     5
390
0
  6
Continuous
 62
     7
100
AcDbHatch
 10
0.0
 20
0.0
 30
0.0
210
0.0
220
0.0
230
1.0
  2
_L-O---1
 70
     1
 71
     1
 91
        1
 92
        2
 72
     0
 73
     1
 93
        0
 97
        1
330
426
 75
     0
 76
     0
 98
        0
  0
LWPOLYLINE
  5
428
102
{ACAD_REACTORS
330
429
102
}
100
AcDbEntity
  8
HATCH_REACTORS
390
0
100
AcDbPolyline
 90
        4
 70
     1
 10
-239.001953
 20
71.46228
 10
-239.001953
 20
71.444214
 10
-239.030762
 20
71.444214
 10
-239.030762
 20
71.46228
  0
HATCH
  5
429
100
AcDbEntity
  8
LAYER01
370
     5
390
0
  6
Continuous
 62
     7
100
AcDbHatch
 10
0.0
 20
0.0
 30
0.0
210
0.0
220
0.0
230
1.0
  2
_L-O---1
 70
     1
 71
     1
 91
        1
 92
        2
 72
     0
 73
     1
 93
        0
 97
        1
330
428
 75
     0
 76
     0
 98
        0
  0
LWPOLYLINE
  5
42A
102
{ACAD_REACTORS
330
42B
102
}
100
AcDbEntity
  8
HATCH_REACTORS
390
0
100
AcDbPolyline
 90
        4
 70
     1
 10
-238.972168
 20
71.444214
 10
-238.972168
 20
71.427856
 10
-239.001953
 20
71.427856
 10
-239.001953
 20
71.444214
  0
HATCH
  5
42B
100
AcDbEntity
  8
LAYER01
370
     5
390
0
  6
Continuous
 62
     7
100
AcDbHatch
 10
0.0
 20
0.0
 30
0.0
210
0.0
220
0.0
230
1.0
  2
_L-O---1
 70
     1
 71
     1
 91
        1
 92
        2
 72
     0
 73
     1
 93
        0
 97
        1
330
42A
 75
     0
 76
     0
 98
        0
  0
LWPOLYLINE
  5
42C
102
{ACAD_REACTORS
330
42D
102
}
100
AcDbEntity
  8
HATCH_REACTORS
390
0
100
AcDbPolyline
 90
        4
 70
     1
 10
-238.941895
 20
71.427856
 10
-238.941895
 20
71.412964
 10
-238.972168
 20
71.412964
 10
-238.972168
 20
71.427856
  0
HATCH
  5
42D
100
AcDbEntity
  8
LAYER01
370
     5
390
0
  6
Continuous
 62
     7
100
AcDbHatch
 10
0.0
 20
0.0
 30
0.0
210
0.0
220
0.0
230
1.0
  2
_L-O---1
 70
     1
 71
     1
 91
        1
 92
        2
 72
     0
 73
     1
 93
        0
 97
        1
330
42C
 75
     0
 76
     0
 98
        0
  0
LWPOLYLINE
  5
42E
102
{ACAD_REACTORS
330
42F
102
}
100
AcDbEntity
  8
HATCH_REACTORS
390
0
100
AcDbPolyline
 90
        4
 70
     1
 10
-238.910645
 20
71.412964
 10
-238.910645
 20
71.39978
 10
-238.941895
 20
71.39978
 10
-238.941895
 20
71.412964
  0
HATCH
  5
42F
100
AcDbEntity
  8
LAYER01
370
     5
390
0
  6
Continuous
 62
     7
100
AcDbHatch
 10
0.0
 20
0.0
 30
0.0
210
0.0
220
0.0
230
1.0
  2
_L-O---1
 70
     1
 71
     1
 91
        1
 92
        2
 72
     0
 73
     1
 93
        0
 97
        1
330
42E
 75
     0
 76
     0
 98
        0
  0
LWPOLYLINE
  5
430
102
{ACAD_REACTORS
330
431
102
}
100
AcDbEntity
  8
HATCH_REACTORS
390
0
100
AcDbPolyline
 90
        4
 70
     1
 10
-238.878906
 20
71.39978
 10
-238.878906
 20
71.388306
 10
-238.910645
 20
71.388306
 10
-238.910645
 20
71.39978
  0
HATCH
  5
431
100
AcDbEntity
  8
LAYER01
370
     5
390
0
  6
Continuous
 62
     7
100
AcDbHatch
 10
0.0
 20
0.0
 30
0.0
210
0.0
220
0.0
230
1.0
  2
_L-O---1
 70
     1
 71
     1
 91
        1
 92
        2
 72
     0
 73
     1
 93
        0
 97
        1
330
430
 75
     0
 76
     0
 98
        0
  0
LWPOLYLINE
  5
432
102
{ACAD_REACTORS
330
433
102
}
100
AcDbEntity
  8
HATCH_REACTORS
390
0
100
AcDbPolyline
 90
        4
 70
     1
 10
-238.84668
 20
71.388306
 10
-238.84668
 20
71.378784
 10
-238.878906
 20
71.378784
 10
-238.878906
 20
71.388306
  0
HATCH
  5
433
100
AcDbEntity
  8
LAYER01
370
     5
390
0
  6
Continuous
 62
     7
100
AcDbHatch
 10
0.0
 20
0.0
 30
0.0
210
0.0
220
0.0
230
1.0
  2
_L-O---1
 70
     1
 71
     1
 91
        1
 92
        2
 72
     0
 73
     1
 93
        0
 97
        1
330
432
 75
     0
 76
     0
 98
        0
  0
LWPOLYLINE
  5
434
102
{ACAD_REACTORS
330
435
102
}
100
AcDbEntity
  8
HATCH_REACTORS
390
0
100
AcDbPolyline
 90
        4
 70
     1
 10
-238.813477
 20
71.378784
 10
-238.813477
 20
71.370728
 10
-238.84668
 20
71.370728
 10
-238.84668
 20
71.378784
  0
HATCH
  5
435
100
AcDbEntity
  8
LAYER01
370
     5
390
0
  6
Continuous
 62
     7
100
AcDbHatch
 10
0.0
 20
0.0
 30
0.0
210
0.0
220
0.0
230
1.0
  2
_L-O---1
 70
     1
 71
     1
 91
        1
 92
        2
 72
     0
 73
     1
 93
        0
 97
        1
330
434
 75
     0
 76
     0
 98
        0
  0
LWPOLYLINE
  5
436
100
AcDbEntity
  8
LAYER01
370
    13
390
0
  6
Continuous
 62
   213
100
AcDbPolyline
 90
        4
 70
     0
 10
-238.683594
 20
71.982056
 10
-256.474121
 20
6.161499
 10
-261.474121
 20
6.161499
 10
-292.691406
 20
6.161499
  0
LWPOLYLINE
  5
437
100
AcDbEntity
  8
LAYER01
370
    25
390
0
  6
DASHDOT
 62
    92
100
AcDbPolyline
 90
        2
 70
     0
 10
-220.0
 20
-0.000122
 10
-11.140137
 20
-0.000122
  0
LWPOLYLINE
  5
438
100
AcDbEntity
  8
LAYER01
370
    25
390
0
  6
DASHDOT
 62
    92
100
AcDbPolyline
 90
        7
 70
     0
 10
-219.247559
 20
366.45813
 10
-216.247559
 20
363.45813
 10
-213.247559
 20
366.45813
 10
-193.247559
 20
366.45813
 10
-190.247559
 20
369.45813
 10
-187.247559
 20
366.45813
 10
-167.247559
 20
366.45813
  0
LWPOLYLINE
  5
439
100
AcDbEntity
  8
LAYER01
370
    25
390
0
  6
DASHDOT
 62
    92
100
AcDbPolyline
 90
        7
 70
     0
 10
-167.247559
 20
366.45813
 10
-164.247559
 20
363.45813
 10
-161.247559
 20
366.45813
 10
-141.247559
 20
366.45813
 10
-138.247559
 20
369.45813
 10
-135.247559
 20
366.45813
 10
-130.0
 20
366.45813
  0
LWPOLYLINE
  5
43A
100
AcDbEntity
  8
LAYER01
370
    25
390
0
  6
DASHDOT
 62
    92
100
AcDbPolyline
 90
        2
 70
     0
 10
-130.0
 20
366.45813
 10
-11.140137
 20
366.45813
  0
LWPOLYLINE
  5
43B
100
AcDbEntity
  8
LAYER01
370
    25
390
0
  6
DASHDOT
 62
    92
100
AcDbPolyline
 90
        2
 70
     0
 10
-253.219727
 20
93.703491
 10
-261.0
 20
93.703491
  0
LWPOLYLINE
  5
43C
100
AcDbEntity
  8
LAYER01
370
    35
390
0
  6
Continuous
 62
   134
100
AcDbPolyline
 90
        2
 70
     0
 10
-260.0
 20
90.703491
 10
-268.0
 20
90.703491
  0
LWPOLYLINE
  5
43D
100
AcDbEntity
  8
LAYER01
370
    35
390
0
  6
Continuous
 62
   134
100
AcDbPolyline
 90
        2
 70
     0
 10
-260.0
 20
96.703491
 10
-268.0
 20
96.703491
  0
LWPOLYLINE
  5
43E
100
AcDbEntity
  8
LAYER01
370
    35
390
0
  6
Continuous
 62
   134
100
AcDbPolyline
 90
        2
 70
     0
 10
-260.0
 20
96.103394
 10
-268.0
 20
96.103394
  0
LWPOLYLINE
  5
43F
100
AcDbEntity
  8
LAYER01
370
    35
390
0
  6
Continuous
 62
   134
100
AcDbPolyline
 90
        2
 70
     0
 10
-260.0
 20
91.303345
 10
-268.0
 20
91.303345
  0
LWPOLYLINE
  5
440
100
AcDbEntity
  8
LAYER01
370
    35
390
0
  6
Continuous
 62
   134
100
AcDbPolyline
 90
        7
 70
     1
 10
-269.5
 20
98.703491
 10
-269.5
 20
88.703491
 42
0.414214
 10
-268.5
 20
87.703491
 10
-268.0
 20
87.703491
 10
-268.0
 20
99.703491
 10
-268.5
 20
99.703491
 42
0.414214
 10
-269.5
 20
98.703491
  0
LWPOLYLINE
  5
441
100
AcDbEntity
  8
LAYER01
370
    35
390
0
  6
Continuous
 62
   134
100
AcDbPolyline
 90
        2
 70
     0
 10
-255.399902
 20
96.657349
 10
-255.399902
 20
90.74939
  0
LWPOLYLINE
  5
442
100
AcDbEntity
  8
LAYER01
370
    13
390
0
  6
Continuous
 62
   213
100
AcDbPolyline
 90
        2
 70
     0
 10
-255.399902
 20
92.16272
 42
0.626098
 10
-255.399902
 20
95.244019
  0
LWPOLYLINE
  5
443
100
AcDbEntity
  8
LAYER01
370
    13
390
0
  6
Continuous
 62
   213
100
AcDbPolyline
 90
        2
 70
     0
 10
-255.399902
 20
96.657349
 42
0.423414
 10
-258.399902
 20
97.278931
  0
LWPOLYLINE
  5
444
100
AcDbEntity
  8
LAYER01
370
    13
390
0
  6
Continuous
 62
   213
100
AcDbPolyline
 90
        2
 70
     0
 10
-258.399902
 20
90.127808
 42
0.423414
 10
-255.399902
 20
90.749634
  0
LWPOLYLINE
  5
445
100
AcDbEntity
  8
LAYER01
370
    25
390
0
  6
DASHDOT
 62
    92
100
AcDbPolyline
 90
        2
 70
     0
 10
-271.247559
 20
366.45813
 10
-282.993164
 20
366.45813
  0
INSERT
  5
455
100
AcDbEntity
  8
LAYER01
390
0
100
AcDbBlockReference
  2
_D---ACV_U_79
 10
-1556.728027
 20
-836.988647
 30
0.0
  0
LWPOLYLINE
  5
456
100
AcDbEntity
  8
LAYER01
370
    25
390
0
  6
Continuous
 62
    92
100
AcDbPolyline
 90
        2
 70
     0
 10
-335.640137
 20
137.515503
 10
-267.291992
 20
137.515503
  0
INSERT
  5
45B
100
AcDbEntity
  8
LAYER01
390
0
100
AcDbBlockReference
  2
T-ROCKP__U_M_79
 10
-320.957031
 20
137.515503
 30
0.0
 50
180.0
  0
INSERT
  5
461
100
AcDbEntity
  8
LAYER01
390
0
100
AcDbBlockReference
  2
T-VENPRF_U_M_79
 10
-285.957031
 20
6.161621
 30
0.0
 50
180.0
  0
INSERT
  5
467
100
AcDbEntity
  8
LAYER01
390
0
100
AcDbBlockReference
  2
T-ACHTER_U_79
 10
-270.957031
 20
-34.484497
 30
0.0
  0
INSERT
  5
46C
100
AcDbEntity
  8
LAYER01
390
0
100
AcDbBlockReference
  2
T-VENTIL_U_79
 10
-245.957031
 20
265.515503
 30
0.0
 50
90.0
  0
LWPOLYLINE
  5
46D
102
{ACAD_REACTORS
330
46E
102
}
100
AcDbEntity
  8
HATCH_REACTORS
390
0
100
AcDbPolyline
 90
        4
 70
     1
 10
-260.0
 20
96.703491
 10
-268.0
 20
96.703491
 10
-268.0
 20
366.45813
 10
-260.0
 20
366.45813
  0
HATCH
  5
46E
100
AcDbEntity
  8
LAYER49
370
    13
390
0
  6
Continuous
 62
   213
100
AcDbHatch
 10
0.0
 20
0.0
 30
0.0
210
0.0
220
0.0
230
1.0
  2
~A--G#X~
 70
     0
 71
     1
 91
        1
 92
        2
 72
     0
 73
     1
 93
        4
 10
-260.0
 20
96.7034912109375
 10
-268.0
 20
96.7034912109375
 10
-268.0
 20
366.4581298828125
 10
-260.0
 20
366.4581298828125
 97
        1
330
46D
 75
     0
 76
     0
 52
0.0
 41
1.0
 77
     0
 78
     1
 53
180.0
 43
-1516.187988
 44
-5629.042969
 45
-0.0
 46
-0.300000011920929
 79
     0
 98
        0
  0
LWPOLYLINE
  5
470
100
AcDbEntity
  8
LAYER49
370
    25
390
0
  6
Continuous
 62
    92
100
AcDbPolyline
 90
        2
 70
     0
 10
-268.0
 20
96.703491
 10
-268.0
 20
366.45813
  0
LWPOLYLINE
  5
471
100
AcDbEntity
  8
LAYER49
370
    25
390
0
  6
Continuous
 62
    92
100
AcDbPolyline
 90
        2
 70
     0
 10
-260.0
 20
366.45813
 10
-260.0
 20
96.703491
  0
LWPOLYLINE
  5
472
100
AcDbEntity
  8
LAYER49
370
    25
390
0
  6
Continuous
 62
    92
100
AcDbPolyline
 90
        2
 70
     0
 10
-260.0
 20
96.703491
 10
-268.0
 20
96.703491
  0
LWPOLYLINE
  5
473
100
AcDbEntity
  8
LAYER49
370
    25
390
0
  6
Continuous
 62
    92
100
AcDbPolyline
 90
        2
 70
     0
 10
-268.0
 20
366.45813
 10
-260.0
 20
366.45813
  0
LWPOLYLINE
  5
474
102
{ACAD_REACTORS
330
475
102
}
100
AcDbEntity
  8
HATCH_REACTORS
390
0
100
AcDbPolyline
 90
        4
 70
     1
 10
-260.0
 20
59.060669
 10
-268.0
 20
59.060669
 10
-268.0
 20
90.703491
 10
-260.0
 20
90.703491
  0
HATCH
  5
475
100
AcDbEntity
  8
LAYER49
370
    13
390
0
  6
Continuous
 62
   213
100
AcDbHatch
 10
0.0
 20
0.0
 30
0.0
210
0.0
220
0.0
230
1.0
  2
~A--G#X~
 70
     0
 71
     1
 91
        1
 92
        2
 72
     0
 73
     1
 93
        4
 10
-260.0
 20
59.0606689453125
 10
-268.0
 20
59.0606689453125
 10
-268.0
 20
90.7034912109375
 10
-260.0
 20
90.7034912109375
 97
        1
330
474
 75
     0
 76
     0
 52
0.0
 41
1.0
 77
     0
 78
     1
 53
180.0
 43
-1478.545166
 44
-5629.042969
 45
-0.0
 46
-0.300000011920929
 79
     0
 98
        0
  0
LWPOLYLINE
  5
476
100
AcDbEntity
  8
LAYER49
370
    25
390
0
  6
Continuous
 62
    92
100
AcDbPolyline
 90
        2
 70
     0
 10
-268.0
 20
59.060669
 10
-268.0
 20
90.703491
  0
LWPOLYLINE
  5
477
100
AcDbEntity
  8
LAYER49
370
    25
390
0
  6
Continuous
 62
    92
100
AcDbPolyline
 90
        2
 70
     0
 10
-260.0
 20
90.703491
 10
-260.0
 20
59.060669
  0
LWPOLYLINE
  5
478
100
AcDbEntity
  8
LAYER49
370
    25
390
0
  6
Continuous
 62
    92
100
AcDbPolyline
 90
        2
 70
     0
 10
-260.0
 20
59.060669
 10
-268.0
 20
59.060669
  0
LWPOLYLINE
  5
479
100
AcDbEntity
  8
LAYER49
370
    25
390
0
  6
Continuous
 62
    92
100
AcDbPolyline
 90
        2
 70
     0
 10
-268.0
 20
90.703491
 10
-260.0
 20
90.703491
  0
LWPOLYLINE
  5
47A
100
AcDbEntity
  8
LAYER01
370
    25
390
0
  6
DASHDOT
 62
    92
100
AcDbPolyline
 90
        7
 70
     0
 10
-271.247559
 20
366.45813
 10
-268.247559
 20
363.45813
 10
-265.247559
 20
366.45813
 10
-245.247559
 20
366.45813
 10
-242.247559
 20
369.45813
 10
-239.247559
 20
366.45813
 10
-219.247559
 20
366.45813
  0
ENDBLK
  5
47B
100
AcDbEntity
  8
0
390
0
100
AcDbBlockEnd
  0
BLOCK
  5
34
100
AcDbEntity
  8
0
390
0
100
AcDbBlockBegin
  2
HATCH--E_U_79
 70
     0
 10
0.0
 20
0.0
 30
0.0
  3
HATCH--E_U_79
  1

  0
LWPOLYLINE
  5
35
100
AcDbEntity
  8
LAYER01
370
    13
390
0
  6
Continuous
 62
   213
100
AcDbPolyline
 90
        2
 70
     0
 10
1340.399902
 20
873.169922
 10
1340.649902
 20
873.169922
  0
LWPOLYLINE
  5
37
100
AcDbEntity
  8
LAYER01
370
    13
390
0
  6
Continuous
 62
   213
100
AcDbPolyline
 90
        2
 70
     0
 10
1337.770996
 20
876.595703
 10
1338.020996
 20
876.595703
  0
LWPOLYLINE
  5
38
100
AcDbEntity
  8
LAYER01
370
    13
390
0
  6
Continuous
 62
   213
100
AcDbPolyline
 90
        2
 70
     0
 10
1340.368652
 20
866.672363
 10
1340.618652
 20
866.672363
  0
LWPOLYLINE
  5
39
100
AcDbEntity
  8
LAYER01
370
    13
390
0
  6
Continuous
 62
   213
100
AcDbPolyline
 90
        2
 70
     0
 10
1337.855957
 20
869.947021
 10
1338.105957
 20
869.947021
  0
LWPOLYLINE
  5
3A
100
AcDbEntity
  8
LAYER01
370
    13
390
0
  6
Continuous
 62
   213
100
AcDbPolyline
 90
        2
 70
     0
 10
1340.453613
 20
860.023682
 10
1340.703613
 20
860.023682
  0
LWPOLYLINE
  5
3B
100
AcDbEntity
  8
LAYER01
370
    13
390
0
  6
Continuous
 62
   213
100
AcDbPolyline
 90
        2
 70
     0
 10
1338.103027
 20
863.08667
 10
1338.353027
 20
863.08667
  0
LWPOLYLINE
  5
3C
100
AcDbEntity
  8
LAYER01
370
    13
390
0
  6
Continuous
 62
   213
100
AcDbPolyline
 90
        2
 70
     0
 10
1340.700684
 20
853.16333
 10
1340.950684
 20
853.16333
  0
LWPOLYLINE
  5
3D
100
AcDbEntity
  8
LAYER01
370
    13
390
0
  6
Continuous
 62
   213
100
AcDbPolyline
 90
        2
 70
     0
 10
1338.071777
 20
856.589111
 10
1338.321777
 20
856.589111
  0
LWPOLYLINE
  5
3E
100
AcDbEntity
  8
LAYER01
370
    13
390
0
  6
Continuous
 62
   213
100
AcDbPolyline
 90
        2
 70
     0
 10
1340.669434
 20
846.665771
 10
1340.919434
 20
846.665771
  0
LWPOLYLINE
  5
3F
100
AcDbEntity
  8
LAYER01
370
    13
390
0
  6
Continuous
 62
   213
100
AcDbPolyline
 90
        2
 70
     0
 10
1338.156738
 20
849.94043
 10
1338.406738
 20
849.94043
  0
LWPOLYLINE
  5
40
100
AcDbEntity
  8
LAYER01
370
    13
390
0
  6
Continuous
 62
   213
100
AcDbPolyline
 90
        2
 70
     0
 10
1340.754395
 20
840.01709
 10
1341.004395
 20
840.01709
  0
LWPOLYLINE
  5
41
100
AcDbEntity
  8
LAYER01
370
    13
390
0
  6
Continuous
 62
   213
100
AcDbPolyline
 90
        2
 70
     0
 10
1338.403809
 20
843.080078
 10
1338.653809
 20
843.080078
  0
LWPOLYLINE
  5
42
100
AcDbEntity
  8
LAYER01
370
    13
390
0
  6
Continuous
 62
   213
100
AcDbPolyline
 90
        2
 70
     0
 10
1340.152344
 20
880.030273
 10
1340.402344
 20
880.030273
  0
LWPOLYLINE
  5
43
100
AcDbEntity
  8
LAYER01
370
    13
390
0
  6
Continuous
 62
   213
100
AcDbPolyline
 90
        2
 70
     0
 10
1337.802246
 20
883.093262
 10
1338.052246
 20
883.093262
  0
LWPOLYLINE
  5
44
100
AcDbEntity
  8
LAYER01
370
    13
390
0
  6
Continuous
 62
   213
100
AcDbPolyline
 90
        2
 70
     0
 10
1340.067871
 20
886.678955
 10
1340.317871
 20
886.678955
  0
LWPOLYLINE
  5
45
100
AcDbEntity
  8
LAYER01
370
    13
390
0
  6
Continuous
 62
   213
100
AcDbPolyline
 90
        2
 70
     0
 10
1337.555176
 20
889.953369
 10
1337.805176
 20
889.953369
  0
LWPOLYLINE
  5
46
100
AcDbEntity
  8
LAYER01
370
    13
390
0
  6
Continuous
 62
   213
100
AcDbPolyline
 90
        2
 70
     0
 10
1340.099121
 20
893.176514
 10
1340.349121
 20
893.176514
  0
LWPOLYLINE
  5
47
100
AcDbEntity
  8
LAYER01
370
    13
390
0
  6
Continuous
 62
   213
100
AcDbPolyline
 90
        2
 70
     0
 10
1337.470215
 20
896.602051
 10
1337.720215
 20
896.602051
  0
LWPOLYLINE
  5
48
100
AcDbEntity
  8
LAYER01
370
    13
390
0
  6
Continuous
 62
   213
100
AcDbPolyline
 90
        2
 70
     0
 10
1339.851563
 20
900.036621
 10
1340.101563
 20
900.036621
  0
LWPOLYLINE
  5
49
100
AcDbEntity
  8
LAYER01
370
    13
390
0
  6
Continuous
 62
   213
100
AcDbPolyline
 90
        2
 70
     0
 10
1337.501465
 20
903.099609
 10
1337.751465
 20
903.099609
  0
LWPOLYLINE
  5
4A
100
AcDbEntity
  8
LAYER01
370
    13
390
0
  6
Continuous
 62
   213
100
AcDbPolyline
 90
        2
 70
     0
 10
1339.76709
 20
906.685303
 10
1340.01709
 20
906.685303
  0
LWPOLYLINE
  5
4B
100
AcDbEntity
  8
LAYER01
370
    13
390
0
  6
Continuous
 62
   213
100
AcDbPolyline
 90
        2
 70
     0
 10
1341.624023
 20
862.812256
 10
1341.874023
 20
862.812256
  0
LWPOLYLINE
  5
4C
100
AcDbEntity
  8
LAYER01
370
    13
390
0
  6
Continuous
 62
   213
100
AcDbPolyline
 90
        2
 70
     0
 10
1341.449707
 20
864.134277
 10
1341.699707
 20
864.134277
  0
LWPOLYLINE
  5
4D
100
AcDbEntity
  8
LAYER01
370
    13
390
0
  6
Continuous
 62
   213
100
AcDbPolyline
 90
        2
 70
     0
 10
1341.177734
 20
866.199219
 10
1341.427734
 20
866.199219
  0
LWPOLYLINE
  5
4E
100
AcDbEntity
  8
LAYER01
370
    13
390
0
  6
Continuous
 62
   213
100
AcDbPolyline
 90
        2
 70
     0
 10
1340.723633
 20
869.649414
 10
1340.973633
 20
869.649414
  0
LWPOLYLINE
  5
4F
100
AcDbEntity
  8
LAYER01
370
    13
390
0
  6
Continuous
 62
   213
100
AcDbPolyline
 90
        2
 70
     0
 10
1340.549805
 20
870.971436
 10
1340.799805
 20
870.971436
  0
LWPOLYLINE
  5
50
100
AcDbEntity
  8
LAYER01
370
    13
390
0
  6
Continuous
 62
   213
100
AcDbPolyline
 90
        2
 70
     0
 10
1340.277832
 20
873.036377
 10
1340.527832
 20
873.036377
  0
LWPOLYLINE
  5
51
100
AcDbEntity
  8
LAYER01
370
    13
390
0
  6
Continuous
 62
   213
100
AcDbPolyline
 90
        2
 70
     0
 10
1339.82373
 20
876.486328
 10
1340.07373
 20
876.486328
  0
LWPOLYLINE
  5
52
100
AcDbEntity
  8
LAYER01
370
    13
390
0
  6
Continuous
 62
   213
100
AcDbPolyline
 90
        2
 70
     0
 10
1339.649414
 20
877.808594
 10
1339.899414
 20
877.808594
  0
LWPOLYLINE
  5
53
100
AcDbEntity
  8
LAYER01
370
    13
390
0
  6
Continuous
 62
   213
100
AcDbPolyline
 90
        2
 70
     0
 10
1339.377441
 20
879.873535
 10
1339.627441
 20
879.873535
  0
LWPOLYLINE
  5
54
100
AcDbEntity
  8
LAYER01
370
    13
390
0
  6
Continuous
 62
   213
100
AcDbPolyline
 90
        2
 70
     0
 10
1338.92334
 20
883.323486
 10
1339.17334
 20
883.323486
  0
LWPOLYLINE
  5
55
100
AcDbEntity
  8
LAYER01
370
    13
390
0
  6
Continuous
 62
   213
100
AcDbPolyline
 90
        2
 70
     0
 10
1338.749512
 20
884.645752
 10
1338.999512
 20
884.645752
  0
LWPOLYLINE
  5
56
100
AcDbEntity
  8
LAYER01
370
    13
390
0
  6
Continuous
 62
   213
100
AcDbPolyline
 90
        2
 70
     0
 10
1338.477539
 20
886.710693
 10
1338.727539
 20
886.710693
  0
LWPOLYLINE
  5
57
100
AcDbEntity
  8
LAYER01
370
    13
390
0
  6
Continuous
 62
   213
100
AcDbPolyline
 90
        2
 70
     0
 10
1338.023438
 20
890.160645
 10
1338.273438
 20
890.160645
  0
LWPOLYLINE
  5
58
100
AcDbEntity
  8
LAYER01
370
    13
390
0
  6
Continuous
 62
   213
100
AcDbPolyline
 90
        2
 70
     0
 10
1337.849121
 20
891.482666
 10
1338.099121
 20
891.482666
  0
LWPOLYLINE
  5
59
100
AcDbEntity
  8
LAYER01
370
    13
390
0
  6
Continuous
 62
   213
100
AcDbPolyline
 90
        2
 70
     0
 10
1337.577637
 20
893.547607
 10
1337.827637
 20
893.547607
  0
LWPOLYLINE
  5
5A
100
AcDbEntity
  8
LAYER01
370
    13
390
0
  6
Continuous
 62
   213
100
AcDbPolyline
 90
        2
 70
     0
 10
1337.123047
 20
896.997803
 10
1337.373047
 20
896.997803
  0
LWPOLYLINE
  5
5B
100
AcDbEntity
  8
LAYER01
370
    13
390
0
  6
Continuous
 62
   213
100
AcDbPolyline
 90
        2
 70
     0
 10
1336.949219
 20
898.319824
 10
1337.199219
 20
898.319824
  0
LWPOLYLINE
  5
5C
100
AcDbEntity
  8
LAYER01
370
    13
390
0
  6
Continuous
 62
   213
100
AcDbPolyline
 90
        2
 70
     0
 10
1338.056152
 20
839.958984
 10
1338.306152
 20
839.958984
  0
LWPOLYLINE
  5
5D
100
AcDbEntity
  8
LAYER01
370
    13
390
0
  6
Continuous
 62
   213
100
AcDbPolyline
 90
        2
 70
     0
 10
1337.881836
 20
841.28125
 10
1338.131836
 20
841.28125
  0
LWPOLYLINE
  5
5E
100
AcDbEntity
  8
LAYER01
370
    13
390
0
  6
Continuous
 62
   213
100
AcDbPolyline
 90
        2
 70
     0
 10
1337.610352
 20
843.346191
 10
1337.860352
 20
843.346191
  0
LWPOLYLINE
  5
5F
100
AcDbEntity
  8
LAYER01
370
    13
390
0
  6
Continuous
 62
   213
100
AcDbPolyline
 90
        2
 70
     0
 10
1337.155762
 20
846.796143
 10
1337.405762
 20
846.796143
  0
LWPOLYLINE
  5
60
100
AcDbEntity
  8
LAYER01
370
    13
390
0
  6
Continuous
 62
   213
100
AcDbPolyline
 90
        2
 70
     0
 10
1336.981934
 20
848.118164
 10
1337.231934
 20
848.118164
  0
LWPOLYLINE
  5
61
100
AcDbEntity
  8
LAYER01
370
    13
390
0
  6
Continuous
 62
   213
100
AcDbPolyline
 90
        2
 70
     0
 10
1337.923828
 20
867.81958
 10
1338.173828
 20
867.81958
  0
LWPOLYLINE
  5
62
100
AcDbEntity
  8
LAYER01
370
    13
390
0
  6
Continuous
 62
   213
100
AcDbPolyline
 90
        2
 70
     0
 10
1341.130859
 20
872.85376
 10
1341.380859
 20
872.85376
  0
LWPOLYLINE
  5
63
100
AcDbEntity
  8
LAYER01
370
    13
390
0
  6
Continuous
 62
   213
100
AcDbPolyline
 90
        2
 70
     0
 10
1337.90918
 20
875.729492
 10
1338.15918
 20
875.729492
  0
LWPOLYLINE
  5
64
100
AcDbEntity
  8
LAYER01
370
    13
390
0
  6
Continuous
 62
   213
100
AcDbPolyline
 90
        2
 70
     0
 10
1341.116211
 20
880.763672
 10
1341.366211
 20
880.763672
  0
LWPOLYLINE
  5
65
100
AcDbEntity
  8
LAYER01
370
    13
390
0
  6
Continuous
 62
   213
100
AcDbPolyline
 90
        2
 70
     0
 10
1337.89502
 20
883.639404
 10
1338.14502
 20
883.639404
  0
LWPOLYLINE
  5
66
100
AcDbEntity
  8
LAYER01
370
    13
390
0
  6
Continuous
 62
   213
100
AcDbPolyline
 90
        2
 70
     0
 10
1341.102051
 20
888.673584
 10
1341.352051
 20
888.673584
  0
LWPOLYLINE
  5
67
100
AcDbEntity
  8
LAYER01
370
    13
390
0
  6
Continuous
 62
   213
100
AcDbPolyline
 90
        2
 70
     0
 10
1337.880371
 20
891.549316
 10
1338.130371
 20
891.549316
  0
LWPOLYLINE
  5
68
100
AcDbEntity
  8
LAYER01
370
    13
390
0
  6
Continuous
 62
   213
100
AcDbPolyline
 90
        2
 70
     0
 10
1341.087891
 20
896.583496
 10
1341.337891
 20
896.583496
  0
LWPOLYLINE
  5
69
100
AcDbEntity
  8
LAYER01
370
    13
390
0
  6
Continuous
 62
   213
100
AcDbPolyline
 90
        2
 70
     0
 10
1337.866211
 20
899.459229
 10
1338.116211
 20
899.459229
  0
LWPOLYLINE
  5
6A
100
AcDbEntity
  8
LAYER01
370
    13
390
0
  6
Continuous
 62
   213
100
AcDbPolyline
 90
        2
 70
     0
 10
1341.073242
 20
904.493408
 10
1341.323242
 20
904.493408
  0
LWPOLYLINE
  5
6B
100
AcDbEntity
  8
LAYER01
370
    13
390
0
  6
Continuous
 62
   213
100
AcDbPolyline
 90
        2
 70
     0
 10
1337.852051
 20
907.369141
 10
1338.102051
 20
907.369141
  0
LWPOLYLINE
  5
6C
100
AcDbEntity
  8
LAYER01
370
    13
390
0
  6
Continuous
 62
   213
100
AcDbPolyline
 90
        2
 70
     0
 10
1337.937988
 20
859.909668
 10
1338.187988
 20
859.909668
  0
LWPOLYLINE
  5
6D
100
AcDbEntity
  8
LAYER01
370
    13
390
0
  6
Continuous
 62
   213
100
AcDbPolyline
 90
        2
 70
     0
 10
1341.14502
 20
864.943848
 10
1341.39502
 20
864.943848
  0
LWPOLYLINE
  5
6E
100
AcDbEntity
  8
LAYER01
370
    13
390
0
  6
Continuous
 62
   213
100
AcDbPolyline
 90
        2
 70
     0
 10
1337.952637
 20
851.999512
 10
1338.202637
 20
851.999512
  0
LWPOLYLINE
  5
6F
100
AcDbEntity
  8
LAYER01
370
    13
390
0
  6
Continuous
 62
   213
100
AcDbPolyline
 90
        2
 70
     0
 10
1341.159668
 20
857.033936
 10
1341.409668
 20
857.033936
  0
LWPOLYLINE
  5
70
100
AcDbEntity
  8
LAYER01
370
    13
390
0
  6
Continuous
 62
   213
100
AcDbPolyline
 90
        2
 70
     0
 10
1337.966797
 20
844.0896
 10
1338.216797
 20
844.0896
  0
LWPOLYLINE
  5
71
100
AcDbEntity
  8
LAYER01
370
    13
390
0
  6
Continuous
 62
   213
100
AcDbPolyline
 90
        2
 70
     0
 10
1341.173828
 20
849.124023
 10
1341.423828
 20
849.124023
  0
LWPOLYLINE
  5
72
100
AcDbEntity
  8
LAYER01
370
    13
390
0
  6
Continuous
 62
   213
100
AcDbPolyline
 90
        2
 70
     0
 10
1341.188477
 20
841.213867
 10
1341.438477
 20
841.213867
  0
LWPOLYLINE
  5
73
100
AcDbEntity
  8
LAYER01
370
    13
390
0
  6
Continuous
 62
   213
100
AcDbPolyline
 90
        2
 70
     0
 10
1337.627441
 20
861.73877
 10
1337.877441
 20
861.73877
  0
LWPOLYLINE
  5
74
100
AcDbEntity
  8
LAYER01
370
    13
390
0
  6
Continuous
 62
   213
100
AcDbPolyline
 90
        2
 70
     0
 10
1338.056152
 20
862.207031
 10
1338.306152
 20
862.207031
  0
LWPOLYLINE
  5
75
100
AcDbEntity
  8
LAYER01
370
    13
390
0
  6
Continuous
 62
   213
100
AcDbPolyline
 90
        2
 70
     0
 10
1340.081055
 20
864.416748
 10
1340.331055
 20
864.416748
  0
LWPOLYLINE
  5
76
100
AcDbEntity
  8
LAYER01
370
    13
390
0
  6
Continuous
 62
   213
100
AcDbPolyline
 90
        2
 70
     0
 10
1337.852051
 20
872.052246
 10
1338.102051
 20
872.052246
  0
LWPOLYLINE
  5
77
100
AcDbEntity
  8
LAYER01
370
    13
390
0
  6
Continuous
 62
   213
100
AcDbPolyline
 90
        2
 70
     0
 10
1340.168457
 20
874.580566
 10
1340.418457
 20
874.580566
  0
LWPOLYLINE
  5
78
100
AcDbEntity
  8
LAYER01
370
    13
390
0
  6
Continuous
 62
   213
100
AcDbPolyline
 90
        2
 70
     0
 10
1340.597656
 20
875.048584
 10
1340.847656
 20
875.048584
  0
LWPOLYLINE
  5
79
100
AcDbEntity
  8
LAYER01
370
    13
390
0
  6
Continuous
 62
   213
100
AcDbPolyline
 90
        2
 70
     0
 10
1337.939453
 20
882.216064
 10
1338.189453
 20
882.216064
  0
LWPOLYLINE
  5
7A
100
AcDbEntity
  8
LAYER01
370
    13
390
0
  6
Continuous
 62
   213
100
AcDbPolyline
 90
        2
 70
     0
 10
1338.368164
 20
882.684082
 10
1338.618164
 20
882.684082
  0
LWPOLYLINE
  5
7B
100
AcDbEntity
  8
LAYER01
370
    13
390
0
  6
Continuous
 62
   213
100
AcDbPolyline
 90
        2
 70
     0
 10
1340.393066
 20
884.894043
 10
1340.643066
 20
884.894043
  0
LWPOLYLINE
  5
7C
100
AcDbEntity
  8
LAYER01
370
    13
390
0
  6
Continuous
 62
   213
100
AcDbPolyline
 90
        2
 70
     0
 10
1338.163574
 20
892.529541
 10
1338.413574
 20
892.529541
  0
LWPOLYLINE
  5
7D
100
AcDbEntity
  8
LAYER01
370
    13
390
0
  6
Continuous
 62
   213
100
AcDbPolyline
 90
        2
 70
     0
 10
1340.480469
 20
895.057617
 10
1340.730469
 20
895.057617
  0
LWPOLYLINE
  5
7E
100
AcDbEntity
  8
LAYER01
370
    13
390
0
  6
Continuous
 62
   213
100
AcDbPolyline
 90
        2
 70
     0
 10
1340.90918
 20
895.525879
 10
1341.15918
 20
895.525879
  0
LWPOLYLINE
  5
7F
100
AcDbEntity
  8
LAYER01
370
    13
390
0
  6
Continuous
 62
   213
100
AcDbPolyline
 90
        2
 70
     0
 10
1338.250977
 20
902.693115
 10
1338.500977
 20
902.693115
  0
LWPOLYLINE
  5
80
100
AcDbEntity
  8
LAYER01
370
    13
390
0
  6
Continuous
 62
   213
100
AcDbPolyline
 90
        2
 70
     0
 10
1338.680176
 20
903.161377
 10
1338.930176
 20
903.161377
  0
LWPOLYLINE
  5
81
100
AcDbEntity
  8
LAYER01
370
    13
390
0
  6
Continuous
 62
   213
100
AcDbPolyline
 90
        2
 70
     0
 10
1340.705078
 20
905.371094
 10
1340.955078
 20
905.371094
  0
LWPOLYLINE
  5
82
100
AcDbEntity
  8
LAYER01
370
    13
390
0
  6
Continuous
 62
   213
100
AcDbPolyline
 90
        2
 70
     0
 10
1337.540039
 20
851.575195
 10
1337.790039
 20
851.575195
  0
LWPOLYLINE
  5
83
100
AcDbEntity
  8
LAYER01
370
    13
390
0
  6
Continuous
 62
   213
100
AcDbPolyline
 90
        2
 70
     0
 10
1339.856445
 20
854.103271
 10
1340.106445
 20
854.103271
  0
LWPOLYLINE
  5
84
100
AcDbEntity
  8
LAYER01
370
    13
390
0
  6
Continuous
 62
   213
100
AcDbPolyline
 90
        2
 70
     0
 10
1340.285645
 20
854.571533
 10
1340.535645
 20
854.571533
  0
LWPOLYLINE
  5
85
100
AcDbEntity
  8
LAYER01
370
    13
390
0
  6
Continuous
 62
   213
100
AcDbPolyline
 90
        2
 70
     0
 10
1337.31543
 20
841.261719
 10
1337.56543
 20
841.261719
  0
LWPOLYLINE
  5
86
100
AcDbEntity
  8
LAYER01
370
    13
390
0
  6
Continuous
 62
   213
100
AcDbPolyline
 90
        2
 70
     0
 10
1337.744629
 20
841.729736
 10
1337.994629
 20
841.729736
  0
LWPOLYLINE
  5
87
100
AcDbEntity
  8
LAYER01
370
    13
390
0
  6
Continuous
 62
   213
100
AcDbPolyline
 90
        2
 70
     0
 10
1339.769531
 20
843.939453
 10
1340.019531
 20
843.939453
  0
ENDBLK
  5
88
100
AcDbEntity
  8
0
390
0
100
AcDbBlockEnd
  0
BLOCK
  5
8B
100
AcDbEntity
  8
0
390
0
100
AcDbBlockBegin
  2
HATCH--F_U_79
 70
     0
 10
0.0
 20
0.0
 30
0.0
  3
HATCH--F_U_79
  1

  0
LWPOLYLINE
  5
8C
100
AcDbEntity
  8
LAYER01
370
    13
390
0
  6
Continuous
 62
   213
100
AcDbPolyline
 90
        2
 70
     0
 10
1425.950195
 20
872.826904
 10
1426.200195
 20
872.826904
  0
LWPOLYLINE
  5
8D
100
AcDbEntity
  8
LAYER01
370
    13
390
0
  6
Continuous
 62
   213
100
AcDbPolyline
 90
        2
 70
     0
 10
1424.774902
 20
874.358398
 10
1425.024902
 20
874.358398
  0
LWPOLYLINE
  5
8E
100
AcDbEntity
  8
LAYER01
370
    13
390
0
  6
Continuous
 62
   213
100
AcDbPolyline
 90
        2
 70
     0
 10
1423.460938
 20
876.071289
 10
1423.710938
 20
876.071289
  0
LWPOLYLINE
  5
8F
100
AcDbEntity
  8
LAYER01
370
    13
390
0
  6
Continuous
 62
   213
100
AcDbPolyline
 90
        2
 70
     0
 10
1422.20459
 20
877.70874
 10
1422.45459
 20
877.70874
  0
LWPOLYLINE
  5
90
100
AcDbEntity
  8
LAYER01
370
    13
390
0
  6
Continuous
 62
   213
100
AcDbPolyline
 90
        2
 70
     0
 10
1426.07373
 20
869.396973
 10
1426.32373
 20
869.396973
  0
LWPOLYLINE
  5
91
100
AcDbEntity
  8
LAYER01
370
    13
390
0
  6
Continuous
 62
   213
100
AcDbPolyline
 90
        2
 70
     0
 10
1424.759766
 20
871.109619
 10
1425.009766
 20
871.109619
  0
LWPOLYLINE
  5
92
100
AcDbEntity
  8
LAYER01
370
    13
390
0
  6
Continuous
 62
   213
100
AcDbPolyline
 90
        2
 70
     0
 10
1423.503418
 20
872.74707
 10
1423.753418
 20
872.74707
  0
LWPOLYLINE
  5
93
100
AcDbEntity
  8
LAYER01
370
    13
390
0
  6
Continuous
 62
   213
100
AcDbPolyline
 90
        2
 70
     0
 10
1422.328125
 20
874.278564
 10
1422.578125
 20
874.278564
  0
LWPOLYLINE
  5
94
100
AcDbEntity
  8
LAYER01
370
    13
390
0
  6
Continuous
 62
   213
100
AcDbPolyline
 90
        2
 70
     0
 10
1426.058105
 20
866.148193
 10
1426.308105
 20
866.148193
  0
LWPOLYLINE
  5
95
100
AcDbEntity
  8
LAYER01
370
    13
390
0
  6
Continuous
 62
   213
100
AcDbPolyline
 90
        2
 70
     0
 10
1424.801758
 20
867.7854
 10
1425.051758
 20
867.7854
  0
LWPOLYLINE
  5
96
100
AcDbEntity
  8
LAYER01
370
    13
390
0
  6
Continuous
 62
   213
100
AcDbPolyline
 90
        2
 70
     0
 10
1423.626953
 20
869.316895
 10
1423.876953
 20
869.316895
  0
LWPOLYLINE
  5
97
100
AcDbEntity
  8
LAYER01
370
    13
390
0
  6
Continuous
 62
   213
100
AcDbPolyline
 90
        2
 70
     0
 10
1422.3125
 20
871.029785
 10
1422.5625
 20
871.029785
  0
LWPOLYLINE
  5
98
100
AcDbEntity
  8
LAYER01
370
    13
390
0
  6
Continuous
 62
   213
100
AcDbPolyline
 90
        2
 70
     0
 10
1426.100586
 20
862.82373
 10
1426.350586
 20
862.82373
  0
LWPOLYLINE
  5
99
100
AcDbEntity
  8
LAYER01
370
    13
390
0
  6
Continuous
 62
   213
100
AcDbPolyline
 90
        2
 70
     0
 10
1424.925781
 20
864.355225
 10
1425.175781
 20
864.355225
  0
LWPOLYLINE
  5
9A
100
AcDbEntity
  8
LAYER01
370
    13
390
0
  6
Continuous
 62
   213
100
AcDbPolyline
 90
        2
 70
     0
 10
1423.611328
 20
866.068115
 10
1423.861328
 20
866.068115
  0
LWPOLYLINE
  5
9B
100
AcDbEntity
  8
LAYER01
370
    13
390
0
  6
Continuous
 62
   213
100
AcDbPolyline
 90
        2
 70
     0
 10
1422.35498
 20
867.705322
 10
1422.60498
 20
867.705322
  0
LWPOLYLINE
  5
9C
100
AcDbEntity
  8
LAYER01
370
    13
390
0
  6
Continuous
 62
   213
100
AcDbPolyline
 90
        2
 70
     0
 10
1426.224121
 20
859.393555
 10
1426.474121
 20
859.393555
  0
LWPOLYLINE
  5
9D
100
AcDbEntity
  8
LAYER01
370
    13
390
0
  6
Continuous
 62
   213
100
AcDbPolyline
 90
        2
 70
     0
 10
1424.910156
 20
861.106445
 10
1425.160156
 20
861.106445
  0
LWPOLYLINE
  5
9E
100
AcDbEntity
  8
LAYER01
370
    13
390
0
  6
Continuous
 62
   213
100
AcDbPolyline
 90
        2
 70
     0
 10
1423.653809
 20
862.743652
 10
1423.903809
 20
862.743652
  0
LWPOLYLINE
  5
9F
100
AcDbEntity
  8
LAYER01
370
    13
390
0
  6
Continuous
 62
   213
100
AcDbPolyline
 90
        2
 70
     0
 10
1422.478516
 20
864.275146
 10
1422.728516
 20
864.275146
  0
LWPOLYLINE
  5
A0
100
AcDbEntity
  8
LAYER01
370
    13
390
0
  6
Continuous
 62
   213
100
AcDbPolyline
 90
        2
 70
     0
 10
1426.208496
 20
856.144775
 10
1426.458496
 20
856.144775
  0
LWPOLYLINE
  5
A1
100
AcDbEntity
  8
LAYER01
370
    13
390
0
  6
Continuous
 62
   213
100
AcDbPolyline
 90
        2
 70
     0
 10
1424.952148
 20
857.782227
 10
1425.202148
 20
857.782227
  0
LWPOLYLINE
  5
A2
100
AcDbEntity
  8
LAYER01
370
    13
390
0
  6
Continuous
 62
   213
100
AcDbPolyline
 90
        2
 70
     0
 10
1423.777344
 20
859.313721
 10
1424.027344
 20
859.313721
  0
LWPOLYLINE
  5
A3
100
AcDbEntity
  8
LAYER01
370
    13
390
0
  6
Continuous
 62
   213
100
AcDbPolyline
 90
        2
 70
     0
 10
1422.462891
 20
861.026367
 10
1422.712891
 20
861.026367
  0
LWPOLYLINE
  5
A4
100
AcDbEntity
  8
LAYER01
370
    13
390
0
  6
Continuous
 62
   213
100
AcDbPolyline
 90
        2
 70
     0
 10
1426.250977
 20
852.820557
 10
1426.500977
 20
852.820557
  0
LWPOLYLINE
  5
A5
100
AcDbEntity
  8
LAYER01
370
    13
390
0
  6
Continuous
 62
   213
100
AcDbPolyline
 90
        2
 70
     0
 10
1425.076172
 20
854.352051
 10
1425.326172
 20
854.352051
  0
LWPOLYLINE
  5
A6
100
AcDbEntity
  8
LAYER01
370
    13
390
0
  6
Continuous
 62
   213
100
AcDbPolyline
 90
        2
 70
     0
 10
1423.761719
 20
856.064941
 10
1424.011719
 20
856.064941
  0
LWPOLYLINE
  5
A7
100
AcDbEntity
  8
LAYER01
370
    13
390
0
  6
Continuous
 62
   213
100
AcDbPolyline
 90
        2
 70
     0
 10
1422.505371
 20
857.702148
 10
1422.755371
 20
857.702148
  0
LWPOLYLINE
  5
A8
100
AcDbEntity
  8
LAYER01
370
    13
390
0
  6
Continuous
 62
   213
100
AcDbPolyline
 90
        2
 70
     0
 10
1426.374512
 20
849.390381
 10
1426.624512
 20
849.390381
  0
LWPOLYLINE
  5
A9
100
AcDbEntity
  8
LAYER01
370
    13
390
0
  6
Continuous
 62
   213
100
AcDbPolyline
 90
        2
 70
     0
 10
1425.060547
 20
851.103271
 10
1425.310547
 20
851.103271
  0
LWPOLYLINE
  5
AA
100
AcDbEntity
  8
LAYER01
370
    13
390
0
  6
Continuous
 62
   213
100
AcDbPolyline
 90
        2
 70
     0
 10
1423.804199
 20
852.740479
 10
1424.054199
 20
852.740479
  0
LWPOLYLINE
  5
AB
100
AcDbEntity
  8
LAYER01
370
    13
390
0
  6
Continuous
 62
   213
100
AcDbPolyline
 90
        2
 70
     0
 10
1422.628906
 20
854.271973
 10
1422.878906
 20
854.271973
  0
LWPOLYLINE
  5
AC
100
AcDbEntity
  8
LAYER01
370
    13
390
0
  6
Continuous
 62
   213
100
AcDbPolyline
 90
        2
 70
     0
 10
1426.358887
 20
846.141602
 10
1426.608887
 20
846.141602
  0
LWPOLYLINE
  5
AD
100
AcDbEntity
  8
LAYER01
370
    13
390
0
  6
Continuous
 62
   213
100
AcDbPolyline
 90
        2
 70
     0
 10
1425.102539
 20
847.778809
 10
1425.352539
 20
847.778809
  0
LWPOLYLINE
  5
AE
100
AcDbEntity
  8
LAYER01
370
    13
390
0
  6
Continuous
 62
   213
100
AcDbPolyline
 90
        2
 70
     0
 10
1423.927734
 20
849.310303
 10
1424.177734
 20
849.310303
  0
LWPOLYLINE
  5
AF
100
AcDbEntity
  8
LAYER01
370
    13
390
0
  6
Continuous
 62
   213
100
AcDbPolyline
 90
        2
 70
     0
 10
1422.613281
 20
851.023193
 10
1422.863281
 20
851.023193
  0
LWPOLYLINE
  5
B0
100
AcDbEntity
  8
LAYER01
370
    13
390
0
  6
Continuous
 62
   213
100
AcDbPolyline
 90
        2
 70
     0
 10
1426.401367
 20
842.817139
 10
1426.651367
 20
842.817139
  0
LWPOLYLINE
  5
B1
100
AcDbEntity
  8
LAYER01
370
    13
390
0
  6
Continuous
 62
   213
100
AcDbPolyline
 90
        2
 70
     0
 10
1425.226563
 20
844.348633
 10
1425.476563
 20
844.348633
  0
LWPOLYLINE
  5
B2
100
AcDbEntity
  8
LAYER01
370
    13
390
0
  6
Continuous
 62
   213
100
AcDbPolyline
 90
        2
 70
     0
 10
1423.912109
 20
846.061523
 10
1424.162109
 20
846.061523
  0
LWPOLYLINE
  5
B3
100
AcDbEntity
  8
LAYER01
370
    13
390
0
  6
Continuous
 62
   213
100
AcDbPolyline
 90
        2
 70
     0
 10
1422.655762
 20
847.698975
 10
1422.905762
 20
847.698975
  0
LWPOLYLINE
  5
B4
100
AcDbEntity
  8
LAYER01
370
    13
390
0
  6
Continuous
 62
   213
100
AcDbPolyline
 90
        2
 70
     0
 10
1426.524902
 20
839.387207
 10
1426.774902
 20
839.387207
  0
LWPOLYLINE
  5
B5
100
AcDbEntity
  8
LAYER01
370
    13
390
0
  6
Continuous
 62
   213
100
AcDbPolyline
 90
        2
 70
     0
 10
1425.210938
 20
841.099854
 10
1425.460938
 20
841.099854
  0
LWPOLYLINE
  5
B6
100
AcDbEntity
  8
LAYER01
370
    13
390
0
  6
Continuous
 62
   213
100
AcDbPolyline
 90
        2
 70
     0
 10
1423.95459
 20
842.737305
 10
1424.20459
 20
842.737305
  0
LWPOLYLINE
  5
B7
100
AcDbEntity
  8
LAYER01
370
    13
390
0
  6
Continuous
 62
   213
100
AcDbPolyline
 90
        2
 70
     0
 10
1422.779297
 20
844.268799
 10
1423.029297
 20
844.268799
  0
LWPOLYLINE
  5
B8
100
AcDbEntity
  8
LAYER01
370
    13
390
0
  6
Continuous
 62
   213
100
AcDbPolyline
 90
        2
 70
     0
 10
1425.25293
 20
837.775635
 10
1425.50293
 20
837.775635
  0
LWPOLYLINE
  5
B9
100
AcDbEntity
  8
LAYER01
370
    13
390
0
  6
Continuous
 62
   213
100
AcDbPolyline
 90
        2
 70
     0
 10
1424.078125
 20
839.307129
 10
1424.328125
 20
839.307129
  0
LWPOLYLINE
  5
BA
100
AcDbEntity
  8
LAYER01
370
    13
390
0
  6
Continuous
 62
   213
100
AcDbPolyline
 90
        2
 70
     0
 10
1422.763672
 20
841.02002
 10
1423.013672
 20
841.02002
  0
LWPOLYLINE
  5
BB
100
AcDbEntity
  8
LAYER01
370
    13
390
0
  6
Continuous
 62
   213
100
AcDbPolyline
 90
        2
 70
     0
 10
1422.806152
 20
837.695557
 10
1423.056152
 20
837.695557
  0
LWPOLYLINE
  5
BC
100
AcDbEntity
  8
LAYER01
370
    13
390
0
  6
Continuous
 62
   213
100
AcDbPolyline
 90
        2
 70
     0
 10
1425.907715
 20
876.151367
 10
1426.157715
 20
876.151367
  0
LWPOLYLINE
  5
BD
100
AcDbEntity
  8
LAYER01
370
    13
390
0
  6
Continuous
 62
   213
100
AcDbPolyline
 90
        2
 70
     0
 10
1424.651367
 20
877.788574
 10
1424.901367
 20
877.788574
  0
LWPOLYLINE
  5
BE
100
AcDbEntity
  8
LAYER01
370
    13
390
0
  6
Continuous
 62
   213
100
AcDbPolyline
 90
        2
 70
     0
 10
1423.476563
 20
879.320068
 10
1423.726563
 20
879.320068
  0
LWPOLYLINE
  5
BF
100
AcDbEntity
  8
LAYER01
370
    13
390
0
  6
Continuous
 62
   213
100
AcDbPolyline
 90
        2
 70
     0
 10
1422.162109
 20
881.032959
 10
1422.412109
 20
881.032959
  0
LWPOLYLINE
  5
C0
100
AcDbEntity
  8
LAYER01
370
    13
390
0
  6
Continuous
 62
   213
100
AcDbPolyline
 90
        2
 70
     0
 10
1425.92334
 20
879.400146
 10
1426.17334
 20
879.400146
  0
LWPOLYLINE
  5
C1
100
AcDbEntity
  8
LAYER01
370
    13
390
0
  6
Continuous
 62
   213
100
AcDbPolyline
 90
        2
 70
     0
 10
1424.609375
 20
881.113037
 10
1424.859375
 20
881.113037
  0
LWPOLYLINE
  5
C2
100
AcDbEntity
  8
LAYER01
370
    13
390
0
  6
Continuous
 62
   213
100
AcDbPolyline
 90
        2
 70
     0
 10
1423.353027
 20
882.750244
 10
1423.603027
 20
882.750244
  0
LWPOLYLINE
  5
C3
100
AcDbEntity
  8
LAYER01
370
    13
390
0
  6
Continuous
 62
   213
100
AcDbPolyline
 90
        2
 70
     0
 10
1422.177734
 20
884.281738
 10
1422.427734
 20
884.281738
  0
LWPOLYLINE
  5
C4
100
AcDbEntity
  8
LAYER01
370
    13
390
0
  6
Continuous
 62
   213
100
AcDbPolyline
 90
        2
 70
     0
 10
1425.799805
 20
882.830322
 10
1426.049805
 20
882.830322
  0
LWPOLYLINE
  5
C5
100
AcDbEntity
  8
LAYER01
370
    13
390
0
  6
Continuous
 62
   213
100
AcDbPolyline
 90
        2
 70
     0
 10
1424.624512
 20
884.361816
 10
1424.874512
 20
884.361816
  0
LWPOLYLINE
  5
C6
100
AcDbEntity
  8
LAYER01
370
    13
390
0
  6
Continuous
 62
   213
100
AcDbPolyline
 90
        2
 70
     0
 10
1423.310547
 20
886.074707
 10
1423.560547
 20
886.074707
  0
LWPOLYLINE
  5
C7
100
AcDbEntity
  8
LAYER01
370
    13
390
0
  6
Continuous
 62
   213
100
AcDbPolyline
 90
        2
 70
     0
 10
1422.054199
 20
887.711914
 10
1422.304199
 20
887.711914
  0
LWPOLYLINE
  5
C8
100
AcDbEntity
  8
LAYER01
370
    13
390
0
  6
Continuous
 62
   213
100
AcDbPolyline
 90
        2
 70
     0
 10
1425.757324
 20
886.154541
 10
1426.007324
 20
886.154541
  0
LWPOLYLINE
  5
C9
100
AcDbEntity
  8
LAYER01
370
    13
390
0
  6
Continuous
 62
   213
100
AcDbPolyline
 90
        2
 70
     0
 10
1424.500977
 20
887.791992
 10
1424.750977
 20
887.791992
  0
LWPOLYLINE
  5
CA
100
AcDbEntity
  8
LAYER01
370
    13
390
0
  6
Continuous
 62
   213
100
AcDbPolyline
 90
        2
 70
     0
 10
1423.326172
 20
889.323486
 10
1423.576172
 20
889.323486
  0
LWPOLYLINE
  5
CB
100
AcDbEntity
  8
LAYER01
370
    13
390
0
  6
Continuous
 62
   213
100
AcDbPolyline
 90
        2
 70
     0
 10
1422.011719
 20
891.036133
 10
1422.261719
 20
891.036133
  0
LWPOLYLINE
  5
CC
100
AcDbEntity
  8
LAYER01
370
    13
390
0
  6
Continuous
 62
   213
100
AcDbPolyline
 90
        2
 70
     0
 10
1425.772949
 20
889.40332
 10
1426.022949
 20
889.40332
  0
LWPOLYLINE
  5
CD
100
AcDbEntity
  8
LAYER01
370
    13
390
0
  6
Continuous
 62
   213
100
AcDbPolyline
 90
        2
 70
     0
 10
1424.458984
 20
891.116211
 10
1424.708984
 20
891.116211
  0
LWPOLYLINE
  5
CE
100
AcDbEntity
  8
LAYER01
370
    13
390
0
  6
Continuous
 62
   213
100
AcDbPolyline
 90
        2
 70
     0
 10
1423.202637
 20
892.753418
 10
1423.452637
 20
892.753418
  0
LWPOLYLINE
  5
CF
100
AcDbEntity
  8
LAYER01
370
    13
390
0
  6
Continuous
 62
   213
100
AcDbPolyline
 90
        2
 70
     0
 10
1422.027344
 20
894.284912
 10
1422.277344
 20
894.284912
  0
LWPOLYLINE
  5
D0
100
AcDbEntity
  8
LAYER01
370
    13
390
0
  6
Continuous
 62
   213
100
AcDbPolyline
 90
        2
 70
     0
 10
1425.649414
 20
892.833496
 10
1425.899414
 20
892.833496
  0
LWPOLYLINE
  5
D1
100
AcDbEntity
  8
LAYER01
370
    13
390
0
  6
Continuous
 62
   213
100
AcDbPolyline
 90
        2
 70
     0
 10
1424.474121
 20
894.36499
 10
1424.724121
 20
894.36499
  0
LWPOLYLINE
  5
D2
100
AcDbEntity
  8
LAYER01
370
    13
390
0
  6
Continuous
 62
   213
100
AcDbPolyline
 90
        2
 70
     0
 10
1423.160156
 20
896.077881
 10
1423.410156
 20
896.077881
  0
LWPOLYLINE
  5
D3
100
AcDbEntity
  8
LAYER01
370
    13
390
0
  6
Continuous
 62
   213
100
AcDbPolyline
 90
        2
 70
     0
 10
1421.903809
 20
897.715088
 10
1422.153809
 20
897.715088
  0
LWPOLYLINE
  5
D4
100
AcDbEntity
  8
LAYER01
370
    13
390
0
  6
Continuous
 62
   213
100
AcDbPolyline
 90
        2
 70
     0
 10
1425.606934
 20
896.157959
 10
1425.856934
 20
896.157959
  0
LWPOLYLINE
  5
D5
100
AcDbEntity
  8
LAYER01
370
    13
390
0
  6
Continuous
 62
   213
100
AcDbPolyline
 90
        2
 70
     0
 10
1424.350586
 20
897.795166
 10
1424.600586
 20
897.795166
  0
LWPOLYLINE
  5
D6
100
AcDbEntity
  8
LAYER01
370
    13
390
0
  6
Continuous
 62
   213
100
AcDbPolyline
 90
        2
 70
     0
 10
1423.175781
 20
899.32666
 10
1423.425781
 20
899.32666
  0
LWPOLYLINE
  5
D7
100
AcDbEntity
  8
LAYER01
370
    13
390
0
  6
Continuous
 62
   213
100
AcDbPolyline
 90
        2
 70
     0
 10
1421.861328
 20
901.039551
 10
1422.111328
 20
901.039551
  0
LWPOLYLINE
  5
D8
100
AcDbEntity
  8
LAYER01
370
    13
390
0
  6
Continuous
 62
   213
100
AcDbPolyline
 90
        2
 70
     0
 10
1425.622559
 20
899.406738
 10
1425.872559
 20
899.406738
  0
LWPOLYLINE
  5
D9
100
AcDbEntity
  8
LAYER01
370
    13
390
0
  6
Continuous
 62
   213
100
AcDbPolyline
 90
        2
 70
     0
 10
1424.308594
 20
901.119385
 10
1424.558594
 20
901.119385
  0
LWPOLYLINE
  5
DA
100
AcDbEntity
  8
LAYER01
370
    13
390
0
  6
Continuous
 62
   213
100
AcDbPolyline
 90
        2
 70
     0
 10
1423.052246
 20
902.756836
 10
1423.302246
 20
902.756836
  0
LWPOLYLINE
  5
DB
100
AcDbEntity
  8
LAYER01
370
    13
390
0
  6
Continuous
 62
   213
100
AcDbPolyline
 90
        2
 70
     0
 10
1421.876953
 20
904.28833
 10
1422.126953
 20
904.28833
  0
LWPOLYLINE
  5
DC
100
AcDbEntity
  8
LAYER01
370
    13
390
0
  6
Continuous
 62
   213
100
AcDbPolyline
 90
        2
 70
     0
 10
1425.499023
 20
902.83667
 10
1425.749023
 20
902.83667
  0
LWPOLYLINE
  5
DD
100
AcDbEntity
  8
LAYER01
370
    13
390
0
  6
Continuous
 62
   213
100
AcDbPolyline
 90
        2
 70
     0
 10
1424.32373
 20
904.368164
 10
1424.57373
 20
904.368164
  0
LWPOLYLINE
  5
DE
100
AcDbEntity
  8
LAYER01
370
    13
390
0
  6
Continuous
 62
   213
100
AcDbPolyline
 90
        2
 70
     0
 10
1423.009766
 20
906.081055
 10
1423.259766
 20
906.081055
  0
LWPOLYLINE
  5
DF
100
AcDbEntity
  8
LAYER01
370
    13
390
0
  6
Continuous
 62
   213
100
AcDbPolyline
 90
        2
 70
     0
 10
1421.753418
 20
907.718262
 10
1422.003418
 20
907.718262
  0
LWPOLYLINE
  5
E0
100
AcDbEntity
  8
LAYER01
370
    13
390
0
  6
Continuous
 62
   213
100
AcDbPolyline
 90
        2
 70
     0
 10
1425.456543
 20
906.161133
 10
1425.706543
 20
906.161133
  0
LWPOLYLINE
  5
E1
100
AcDbEntity
  8
LAYER01
370
    13
390
0
  6
Continuous
 62
   213
100
AcDbPolyline
 90
        2
 70
     0
 10
1424.200195
 20
907.79834
 10
1424.450195
 20
907.79834
  0
LWPOLYLINE
  5
E2
100
AcDbEntity
  8
LAYER01
370
    13
390
0
  6
Continuous
 62
   213
100
AcDbPolyline
 90
        2
 70
     0
 10
1426.647461
 20
907.878418
 10
1426.897461
 20
907.878418
  0
LWPOLYLINE
  5
E3
100
AcDbEntity
  8
LAYER01
370
    13
390
0
  6
Continuous
 62
   213
100
AcDbPolyline
 90
        2
 70
     0
 10
1426.623047
 20
866.569092
 10
1426.873047
 20
866.569092
  0
LWPOLYLINE
  5
E4
100
AcDbEntity
  8
LAYER01
370
    13
390
0
  6
Continuous
 62
   213
100
AcDbPolyline
 90
        2
 70
     0
 10
1426.536133
 20
867.230225
 10
1426.786133
 20
867.230225
  0
LWPOLYLINE
  5
E5
100
AcDbEntity
  8
LAYER01
370
    13
390
0
  6
Continuous
 62
   213
100
AcDbPolyline
 90
        2
 70
     0
 10
1426.399902
 20
868.262695
 10
1426.649902
 20
868.262695
  0
LWPOLYLINE
  5
E6
100
AcDbEntity
  8
LAYER01
370
    13
390
0
  6
Continuous
 62
   213
100
AcDbPolyline
 90
        2
 70
     0
 10
1426.172852
 20
869.987793
 10
1426.422852
 20
869.987793
  0
LWPOLYLINE
  5
E7
100
AcDbEntity
  8
LAYER01
370
    13
390
0
  6
Continuous
 62
   213
100
AcDbPolyline
 90
        2
 70
     0
 10
1426.085938
 20
870.648682
 10
1426.335938
 20
870.648682
  0
LWPOLYLINE
  5
E8
100
AcDbEntity
  8
LAYER01
370
    13
390
0
  6
Continuous
 62
   213
100
AcDbPolyline
 90
        2
 70
     0
 10
1425.949707
 20
871.681152
 10
1426.199707
 20
871.681152
  0
LWPOLYLINE
  5
E9
100
AcDbEntity
  8
LAYER01
370
    13
390
0
  6
Continuous
 62
   213
100
AcDbPolyline
 90
        2
 70
     0
 10
1425.722656
 20
873.40625
 10
1425.972656
 20
873.40625
  0
LWPOLYLINE
  5
EA
100
AcDbEntity
  8
LAYER01
370
    13
390
0
  6
Continuous
 62
   213
100
AcDbPolyline
 90
        2
 70
     0
 10
1425.635742
 20
874.067383
 10
1425.885742
 20
874.067383
  0
LWPOLYLINE
  5
EB
100
AcDbEntity
  8
LAYER01
370
    13
390
0
  6
Continuous
 62
   213
100
AcDbPolyline
 90
        2
 70
     0
 10
1425.5
 20
875.099854
 10
1425.75
 20
875.099854
  0
LWPOLYLINE
  5
EC
100
AcDbEntity
  8
LAYER01
370
    13
390
0
  6
Continuous
 62
   213
100
AcDbPolyline
 90
        2
 70
     0
 10
1425.272949
 20
876.824951
 10
1425.522949
 20
876.824951
  0
LWPOLYLINE
  5
ED
100
AcDbEntity
  8
LAYER01
370
    13
390
0
  6
Continuous
 62
   213
100
AcDbPolyline
 90
        2
 70
     0
 10
1425.185547
 20
877.48584
 10
1425.435547
 20
877.48584
  0
LWPOLYLINE
  5
EE
100
AcDbEntity
  8
LAYER01
370
    13
390
0
  6
Continuous
 62
   213
100
AcDbPolyline
 90
        2
 70
     0
 10
1425.049805
 20
878.518311
 10
1425.299805
 20
878.518311
  0
LWPOLYLINE
  5
EF
100
AcDbEntity
  8
LAYER01
370
    13
390
0
  6
Continuous
 62
   213
100
AcDbPolyline
 90
        2
 70
     0
 10
1424.822754
 20
880.243408
 10
1425.072754
 20
880.243408
  0
LWPOLYLINE
  5
F0
100
AcDbEntity
  8
LAYER01
370
    13
390
0
  6
Continuous
 62
   213
100
AcDbPolyline
 90
        2
 70
     0
 10
1424.73584
 20
880.904541
 10
1424.98584
 20
880.904541
  0
LWPOLYLINE
  5
F1
100
AcDbEntity
  8
LAYER01
370
    13
390
0
  6
Continuous
 62
   213
100
AcDbPolyline
 90
        2
 70
     0
 10
1424.599609
 20
881.937012
 10
1424.849609
 20
881.937012
  0
LWPOLYLINE
  5
F2
100
AcDbEntity
  8
LAYER01
370
    13
390
0
  6
Continuous
 62
   213
100
AcDbPolyline
 90
        2
 70
     0
 10
1424.372559
 20
883.661865
 10
1424.622559
 20
883.661865
  0
LWPOLYLINE
  5
F3
100
AcDbEntity
  8
LAYER01
370
    13
390
0
  6
Continuous
 62
   213
100
AcDbPolyline
 90
        2
 70
     0
 10
1424.285645
 20
884.322998
 10
1424.535645
 20
884.322998
  0
LWPOLYLINE
  5
F4
100
AcDbEntity
  8
LAYER01
370
    13
390
0
  6
Continuous
 62
   213
100
AcDbPolyline
 90
        2
 70
     0
 10
1424.149902
 20
885.355469
 10
1424.399902
 20
885.355469
  0
LWPOLYLINE
  5
F5
100
AcDbEntity
  8
LAYER01
370
    13
390
0
  6
Continuous
 62
   213
100
AcDbPolyline
 90
        2
 70
     0
 10
1423.922363
 20
887.080566
 10
1424.172363
 20
887.080566
  0
LWPOLYLINE
  5
F6
100
AcDbEntity
  8
LAYER01
370
    13
390
0
  6
Continuous
 62
   213
100
AcDbPolyline
 90
        2
 70
     0
 10
1423.835449
 20
887.741455
 10
1424.085449
 20
887.741455
  0
LWPOLYLINE
  5
F7
100
AcDbEntity
  8
LAYER01
370
    13
390
0
  6
Continuous
 62
   213
100
AcDbPolyline
 90
        2
 70
     0
 10
1423.699707
 20
888.773926
 10
1423.949707
 20
888.773926
  0
LWPOLYLINE
  5
F8
100
AcDbEntity
  8
LAYER01
370
    13
390
0
  6
Continuous
 62
   213
100
AcDbPolyline
 90
        2
 70
     0
 10
1423.472656
 20
890.499023
 10
1423.722656
 20
890.499023
  0
LWPOLYLINE
  5
F9
100
AcDbEntity
  8
LAYER01
370
    13
390
0
  6
Continuous
 62
   213
100
AcDbPolyline
 90
        2
 70
     0
 10
1423.385742
 20
891.160156
 10
1423.635742
 20
891.160156
  0
LWPOLYLINE
  5
FA
100
AcDbEntity
  8
LAYER01
370
    13
390
0
  6
Continuous
 62
   213
100
AcDbPolyline
 90
        2
 70
     0
 10
1423.249512
 20
892.192627
 10
1423.499512
 20
892.192627
  0
LWPOLYLINE
  5
FB
100
AcDbEntity
  8
LAYER01
370
    13
390
0
  6
Continuous
 62
   213
100
AcDbPolyline
 90
        2
 70
     0
 10
1423.022461
 20
893.91748
 10
1423.272461
 20
893.91748
  0
LWPOLYLINE
  5
FC
100
AcDbEntity
  8
LAYER01
370
    13
390
0
  6
Continuous
 62
   213
100
AcDbPolyline
 90
        2
 70
     0
 10
1422.935547
 20
894.578613
 10
1423.185547
 20
894.578613
  0
LWPOLYLINE
  5
FD
100
AcDbEntity
  8
LAYER01
370
    13
390
0
  6
Continuous
 62
   213
100
AcDbPolyline
 90
        2
 70
     0
 10
1422.799316
 20
895.611084
 10
1423.049316
 20
895.611084
  0
LWPOLYLINE
  5
FE
100
AcDbEntity
  8
LAYER01
370
    13
390
0
  6
Continuous
 62
   213
100
AcDbPolyline
 90
        2
 70
     0
 10
1422.572266
 20
897.336182
 10
1422.822266
 20
897.336182
  0
LWPOLYLINE
  5
FF
100
AcDbEntity
  8
LAYER01
370
    13
390
0
  6
Continuous
 62
   213
100
AcDbPolyline
 90
        2
 70
     0
 10
1422.485352
 20
897.99707
 10
1422.735352
 20
897.99707
  0
LWPOLYLINE
  5
100
100
AcDbEntity
  8
LAYER01
370
    13
390
0
  6
Continuous
 62
   213
100
AcDbPolyline
 90
        2
 70
     0
 10
1422.349609
 20
899.029785
 10
1422.599609
 20
899.029785
  0
LWPOLYLINE
  5
101
100
AcDbEntity
  8
LAYER01
370
    13
390
0
  6
Continuous
 62
   213
100
AcDbPolyline
 90
        2
 70
     0
 10
1422.122559
 20
900.754639
 10
1422.372559
 20
900.754639
  0
LWPOLYLINE
  5
102
100
AcDbEntity
  8
LAYER01
370
    13
390
0
  6
Continuous
 62
   213
100
AcDbPolyline
 90
        2
 70
     0
 10
1422.035156
 20
901.415771
 10
1422.285156
 20
901.415771
  0
LWPOLYLINE
  5
103
100
AcDbEntity
  8
LAYER01
370
    13
390
0
  6
Continuous
 62
   213
100
AcDbPolyline
 90
        2
 70
     0
 10
1421.899414
 20
902.448242
 10
1422.149414
 20
902.448242
  0
LWPOLYLINE
  5
104
100
AcDbEntity
  8
LAYER01
370
    13
390
0
  6
Continuous
 62
   213
100
AcDbPolyline
 90
        2
 70
     0
 10
1426.63916
 20
841.468506
 10
1426.88916
 20
841.468506
  0
LWPOLYLINE
  5
105
100
AcDbEntity
  8
LAYER01
370
    13
390
0
  6
Continuous
 62
   213
100
AcDbPolyline
 90
        2
 70
     0
 10
1426.552246
 20
842.129395
 10
1426.802246
 20
842.129395
  0
LWPOLYLINE
  5
106
100
AcDbEntity
  8
LAYER01
370
    13
390
0
  6
Continuous
 62
   213
100
AcDbPolyline
 90
        2
 70
     0
 10
1426.416504
 20
843.161865
 10
1426.666504
 20
843.161865
  0
LWPOLYLINE
  5
107
100
AcDbEntity
  8
LAYER01
370
    13
390
0
  6
Continuous
 62
   213
100
AcDbPolyline
 90
        2
 70
     0
 10
1426.189453
 20
844.886963
 10
1426.439453
 20
844.886963
  0
LWPOLYLINE
  5
108
100
AcDbEntity
  8
LAYER01
370
    13
390
0
  6
Continuous
 62
   213
100
AcDbPolyline
 90
        2
 70
     0
 10
1426.102051
 20
845.548096
 10
1426.352051
 20
845.548096
  0
LWPOLYLINE
  5
109
100
AcDbEntity
  8
LAYER01
370
    13
390
0
  6
Continuous
 62
   213
100
AcDbPolyline
 90
        2
 70
     0
 10
1425.966309
 20
846.580566
 10
1426.216309
 20
846.580566
  0
LWPOLYLINE
  5
10A
100
AcDbEntity
  8
LAYER01
370
    13
390
0
  6
Continuous
 62
   213
100
AcDbPolyline
 90
        2
 70
     0
 10
1425.739258
 20
848.30542
 10
1425.989258
 20
848.30542
  0
LWPOLYLINE
  5
10B
100
AcDbEntity
  8
LAYER01
370
    13
390
0
  6
Continuous
 62
   213
100
AcDbPolyline
 90
        2
 70
     0
 10
1425.652344
 20
848.966553
 10
1425.902344
 20
848.966553
  0
LWPOLYLINE
  5
10C
100
AcDbEntity
  8
LAYER01
370
    13
390
0
  6
Continuous
 62
   213
100
AcDbPolyline
 90
        2
 70
     0
 10
1425.516113
 20
849.999023
 10
1425.766113
 20
849.999023
  0
LWPOLYLINE
  5
10D
100
AcDbEntity
  8
LAYER01
370
    13
390
0
  6
Continuous
 62
   213
100
AcDbPolyline
 90
        2
 70
     0
 10
1425.289063
 20
851.724121
 10
1425.539063
 20
851.724121
  0
LWPOLYLINE
  5
10E
100
AcDbEntity
  8
LAYER01
370
    13
390
0
  6
Continuous
 62
   213
100
AcDbPolyline
 90
        2
 70
     0
 10
1425.202148
 20
852.38501
 10
1425.452148
 20
852.38501
  0
LWPOLYLINE
  5
10F
100
AcDbEntity
  8
LAYER01
370
    13
390
0
  6
Continuous
 62
   213
100
AcDbPolyline
 90
        2
 70
     0
 10
1425.066406
 20
853.41748
 10
1425.316406
 20
853.41748
  0
LWPOLYLINE
  5
110
100
AcDbEntity
  8
LAYER01
370
    13
390
0
  6
Continuous
 62
   213
100
AcDbPolyline
 90
        2
 70
     0
 10
1424.838867
 20
855.142578
 10
1425.088867
 20
855.142578
  0
LWPOLYLINE
  5
111
100
AcDbEntity
  8
LAYER01
370
    13
390
0
  6
Continuous
 62
   213
100
AcDbPolyline
 90
        2
 70
     0
 10
1424.751953
 20
855.803711
 10
1425.001953
 20
855.803711
  0
LWPOLYLINE
  5
112
100
AcDbEntity
  8
LAYER01
370
    13
390
0
  6
Continuous
 62
   213
100
AcDbPolyline
 90
        2
 70
     0
 10
1424.616211
 20
856.836182
 10
1424.866211
 20
856.836182
  0
LWPOLYLINE
  5
113
100
AcDbEntity
  8
LAYER01
370
    13
390
0
  6
Continuous
 62
   213
100
AcDbPolyline
 90
        2
 70
     0
 10
1424.38916
 20
858.561035
 10
1424.63916
 20
858.561035
  0
LWPOLYLINE
  5
114
100
AcDbEntity
  8
LAYER01
370
    13
390
0
  6
Continuous
 62
   213
100
AcDbPolyline
 90
        2
 70
     0
 10
1424.301758
 20
859.222168
 10
1424.551758
 20
859.222168
  0
LWPOLYLINE
  5
115
100
AcDbEntity
  8
LAYER01
370
    13
390
0
  6
Continuous
 62
   213
100
AcDbPolyline
 90
        2
 70
     0
 10
1424.166016
 20
860.254639
 10
1424.416016
 20
860.254639
  0
LWPOLYLINE
  5
116
100
AcDbEntity
  8
LAYER01
370
    13
390
0
  6
Continuous
 62
   213
100
AcDbPolyline
 90
        2
 70
     0
 10
1423.938965
 20
861.979736
 10
1424.188965
 20
861.979736
  0
LWPOLYLINE
  5
117
100
AcDbEntity
  8
LAYER01
370
    13
390
0
  6
Continuous
 62
   213
100
AcDbPolyline
 90
        2
 70
     0
 10
1423.852051
 20
862.640625
 10
1424.102051
 20
862.640625
  0
LWPOLYLINE
  5
118
100
AcDbEntity
  8
LAYER01
370
    13
390
0
  6
Continuous
 62
   213
100
AcDbPolyline
 90
        2
 70
     0
 10
1423.71582
 20
863.67334
 10
1423.96582
 20
863.67334
  0
LWPOLYLINE
  5
119
100
AcDbEntity
  8
LAYER01
370
    13
390
0
  6
Continuous
 62
   213
100
AcDbPolyline
 90
        2
 70
     0
 10
1423.48877
 20
865.398193
 10
1423.73877
 20
865.398193
  0
LWPOLYLINE
  5
11A
100
AcDbEntity
  8
LAYER01
370
    13
390
0
  6
Continuous
 62
   213
100
AcDbPolyline
 90
        2
 70
     0
 10
1423.401855
 20
866.059326
 10
1423.651855
 20
866.059326
  0
LWPOLYLINE
  5
11B
100
AcDbEntity
  8
LAYER01
370
    13
390
0
  6
Continuous
 62
   213
100
AcDbPolyline
 90
        2
 70
     0
 10
1423.266113
 20
867.091797
 10
1423.516113
 20
867.091797
  0
LWPOLYLINE
  5
11C
100
AcDbEntity
  8
LAYER01
370
    13
390
0
  6
Continuous
 62
   213
100
AcDbPolyline
 90
        2
 70
     0
 10
1423.039063
 20
868.816895
 10
1423.289063
 20
868.816895
  0
LWPOLYLINE
  5
11D
100
AcDbEntity
  8
LAYER01
370
    13
390
0
  6
Continuous
 62
   213
100
AcDbPolyline
 90
        2
 70
     0
 10
1422.95166
 20
869.477783
 10
1423.20166
 20
869.477783
  0
LWPOLYLINE
  5
11E
100
AcDbEntity
  8
LAYER01
370
    13
390
0
  6
Continuous
 62
   213
100
AcDbPolyline
 90
        2
 70
     0
 10
1422.815918
 20
870.510254
 10
1423.065918
 20
870.510254
  0
LWPOLYLINE
  5
11F
100
AcDbEntity
  8
LAYER01
370
    13
390
0
  6
Continuous
 62
   213
100
AcDbPolyline
 90
        2
 70
     0
 10
1422.588867
 20
872.235352
 10
1422.838867
 20
872.235352
  0
LWPOLYLINE
  5
120
100
AcDbEntity
  8
LAYER01
370
    13
390
0
  6
Continuous
 62
   213
100
AcDbPolyline
 90
        2
 70
     0
 10
1422.501953
 20
872.896484
 10
1422.751953
 20
872.896484
  0
LWPOLYLINE
  5
121
100
AcDbEntity
  8
LAYER01
370
    13
390
0
  6
Continuous
 62
   213
100
AcDbPolyline
 90
        2
 70
     0
 10
1422.365723
 20
873.928955
 10
1422.615723
 20
873.928955
  0
LWPOLYLINE
  5
122
100
AcDbEntity
  8
LAYER01
370
    13
390
0
  6
Continuous
 62
   213
100
AcDbPolyline
 90
        2
 70
     0
 10
1422.138672
 20
875.653809
 10
1422.388672
 20
875.653809
  0
LWPOLYLINE
  5
123
100
AcDbEntity
  8
LAYER01
370
    13
390
0
  6
Continuous
 62
   213
100
AcDbPolyline
 90
        2
 70
     0
 10
1422.051758
 20
876.314941
 10
1422.301758
 20
876.314941
  0
LWPOLYLINE
  5
124
100
AcDbEntity
  8
LAYER01
370
    13
390
0
  6
Continuous
 62
   213
100
AcDbPolyline
 90
        2
 70
     0
 10
1421.915527
 20
877.347412
 10
1422.165527
 20
877.347412
  0
LWPOLYLINE
  5
125
100
AcDbEntity
  8
LAYER01
370
    13
390
0
  6
Continuous
 62
   213
100
AcDbPolyline
 90
        2
 70
     0
 10
1423.868164
 20
837.540039
 10
1424.118164
 20
837.540039
  0
LWPOLYLINE
  5
126
100
AcDbEntity
  8
LAYER01
370
    13
390
0
  6
Continuous
 62
   213
100
AcDbPolyline
 90
        2
 70
     0
 10
1423.732422
 20
838.57251
 10
1423.982422
 20
838.57251
  0
LWPOLYLINE
  5
127
100
AcDbEntity
  8
LAYER01
370
    13
390
0
  6
Continuous
 62
   213
100
AcDbPolyline
 90
        2
 70
     0
 10
1423.505371
 20
840.297363
 10
1423.755371
 20
840.297363
  0
LWPOLYLINE
  5
128
100
AcDbEntity
  8
LAYER01
370
    13
390
0
  6
Continuous
 62
   213
100
AcDbPolyline
 90
        2
 70
     0
 10
1423.418457
 20
840.958496
 10
1423.668457
 20
840.958496
  0
LWPOLYLINE
  5
129
100
AcDbEntity
  8
LAYER01
370
    13
390
0
  6
Continuous
 62
   213
100
AcDbPolyline
 90
        2
 70
     0
 10
1423.282227
 20
841.990967
 10
1423.532227
 20
841.990967
  0
LWPOLYLINE
  5
12A
100
AcDbEntity
  8
LAYER01
370
    13
390
0
  6
Continuous
 62
   213
100
AcDbPolyline
 90
        2
 70
     0
 10
1423.055176
 20
843.716064
 10
1423.305176
 20
843.716064
  0
LWPOLYLINE
  5
12B
100
AcDbEntity
  8
LAYER01
370
    13
390
0
  6
Continuous
 62
   213
100
AcDbPolyline
 90
        2
 70
     0
 10
1422.968262
 20
844.376953
 10
1423.218262
 20
844.376953
  0
LWPOLYLINE
  5
12C
100
AcDbEntity
  8
LAYER01
370
    13
390
0
  6
Continuous
 62
   213
100
AcDbPolyline
 90
        2
 70
     0
 10
1422.832031
 20
845.409424
 10
1423.082031
 20
845.409424
  0
LWPOLYLINE
  5
12D
100
AcDbEntity
  8
LAYER01
370
    13
390
0
  6
Continuous
 62
   213
100
AcDbPolyline
 90
        2
 70
     0
 10
1422.60498
 20
847.134521
 10
1422.85498
 20
847.134521
  0
LWPOLYLINE
  5
12E
100
AcDbEntity
  8
LAYER01
370
    13
390
0
  6
Continuous
 62
   213
100
AcDbPolyline
 90
        2
 70
     0
 10
1422.518066
 20
847.795654
 10
1422.768066
 20
847.795654
  0
LWPOLYLINE
  5
12F
100
AcDbEntity
  8
LAYER01
370
    13
390
0
  6
Continuous
 62
   213
100
AcDbPolyline
 90
        2
 70
     0
 10
1422.382324
 20
848.828125
 10
1422.632324
 20
848.828125
  0
LWPOLYLINE
  5
130
100
AcDbEntity
  8
LAYER01
370
    13
390
0
  6
Continuous
 62
   213
100
AcDbPolyline
 90
        2
 70
     0
 10
1422.155273
 20
850.553223
 10
1422.405273
 20
850.553223
  0
LWPOLYLINE
  5
131
100
AcDbEntity
  8
LAYER01
370
    13
390
0
  6
Continuous
 62
   213
100
AcDbPolyline
 90
        2
 70
     0
 10
1422.067871
 20
851.214111
 10
1422.317871
 20
851.214111
  0
LWPOLYLINE
  5
132
100
AcDbEntity
  8
LAYER01
370
    13
390
0
  6
Continuous
 62
   213
100
AcDbPolyline
 90
        2
 70
     0
 10
1421.932129
 20
852.246582
 10
1422.182129
 20
852.246582
  0
LWPOLYLINE
  5
133
100
AcDbEntity
  8
LAYER01
370
    13
390
0
  6
Continuous
 62
   213
100
AcDbPolyline
 90
        2
 70
     0
 10
1426.606445
 20
891.669922
 10
1426.856445
 20
891.669922
  0
LWPOLYLINE
  5
134
100
AcDbEntity
  8
LAYER01
370
    13
390
0
  6
Continuous
 62
   213
100
AcDbPolyline
 90
        2
 70
     0
 10
1426.519531
 20
892.331055
 10
1426.769531
 20
892.331055
  0
LWPOLYLINE
  5
135
100
AcDbEntity
  8
LAYER01
370
    13
390
0
  6
Continuous
 62
   213
100
AcDbPolyline
 90
        2
 70
     0
 10
1426.383789
 20
893.363525
 10
1426.633789
 20
893.363525
  0
LWPOLYLINE
  5
136
100
AcDbEntity
  8
LAYER01
370
    13
390
0
  6
Continuous
 62
   213
100
AcDbPolyline
 90
        2
 70
     0
 10
1426.156738
 20
895.088623
 10
1426.406738
 20
895.088623
  0
LWPOLYLINE
  5
137
100
AcDbEntity
  8
LAYER01
370
    13
390
0
  6
Continuous
 62
   213
100
AcDbPolyline
 90
        2
 70
     0
 10
1426.069336
 20
895.749512
 10
1426.319336
 20
895.749512
  0
LWPOLYLINE
  5
138
100
AcDbEntity
  8
LAYER01
370
    13
390
0
  6
Continuous
 62
   213
100
AcDbPolyline
 90
        2
 70
     0
 10
1425.933594
 20
896.781982
 10
1426.183594
 20
896.781982
  0
LWPOLYLINE
  5
139
100
AcDbEntity
  8
LAYER01
370
    13
390
0
  6
Continuous
 62
   213
100
AcDbPolyline
 90
        2
 70
     0
 10
1425.706543
 20
898.50708
 10
1425.956543
 20
898.50708
  0
LWPOLYLINE
  5
13A
100
AcDbEntity
  8
LAYER01
370
    13
390
0
  6
Continuous
 62
   213
100
AcDbPolyline
 90
        2
 70
     0
 10
1425.619629
 20
899.168213
 10
1425.869629
 20
899.168213
  0
LWPOLYLINE
  5
13B
100
AcDbEntity
  8
LAYER01
370
    13
390
0
  6
Continuous
 62
   213
100
AcDbPolyline
 90
        2
 70
     0
 10
1425.483398
 20
900.200684
 10
1425.733398
 20
900.200684
  0
LWPOLYLINE
  5
13C
100
AcDbEntity
  8
LAYER01
370
    13
390
0
  6
Continuous
 62
   213
100
AcDbPolyline
 90
        2
 70
     0
 10
1425.256348
 20
901.925537
 10
1425.506348
 20
901.925537
  0
LWPOLYLINE
  5
13D
100
AcDbEntity
  8
LAYER01
370
    13
390
0
  6
Continuous
 62
   213
100
AcDbPolyline
 90
        2
 70
     0
 10
1425.169434
 20
902.58667
 10
1425.419434
 20
902.58667
  0
LWPOLYLINE
  5
13E
100
AcDbEntity
  8
LAYER01
370
    13
390
0
  6
Continuous
 62
   213
100
AcDbPolyline
 90
        2
 70
     0
 10
1425.033691
 20
903.619141
 10
1425.283691
 20
903.619141
  0
LWPOLYLINE
  5
13F
100
AcDbEntity
  8
LAYER01
370
    13
390
0
  6
Continuous
 62
   213
100
AcDbPolyline
 90
        2
 70
     0
 10
1424.806152
 20
905.344238
 10
1425.056152
 20
905.344238
  0
LWPOLYLINE
  5
140
100
AcDbEntity
  8
LAYER01
370
    13
390
0
  6
Continuous
 62
   213
100
AcDbPolyline
 90
        2
 70
     0
 10
1424.719238
 20
906.005127
 10
1424.969238
 20
906.005127
  0
LWPOLYLINE
  5
141
100
AcDbEntity
  8
LAYER01
370
    13
390
0
  6
Continuous
 62
   213
100
AcDbPolyline
 90
        2
 70
     0
 10
1424.583496
 20
907.037598
 10
1424.833496
 20
907.037598
  0
LWPOLYLINE
  5
142
100
AcDbEntity
  8
LAYER01
370
    13
390
0
  6
Continuous
 62
   213
100
AcDbPolyline
 90
        2
 70
     0
 10
1422.27002
 20
866.926758
 10
1422.52002
 20
866.926758
  0
LWPOLYLINE
  5
143
100
AcDbEntity
  8
LAYER01
370
    13
390
0
  6
Continuous
 62
   213
100
AcDbPolyline
 90
        2
 70
     0
 10
1423.873535
 20
869.443848
 10
1424.123535
 20
869.443848
  0
LWPOLYLINE
  5
144
100
AcDbEntity
  8
LAYER01
370
    13
390
0
  6
Continuous
 62
   213
100
AcDbPolyline
 90
        2
 70
     0
 10
1424.214844
 20
869.979492
 10
1424.464844
 20
869.979492
  0
LWPOLYLINE
  5
145
100
AcDbEntity
  8
LAYER01
370
    13
390
0
  6
Continuous
 62
   213
100
AcDbPolyline
 90
        2
 70
     0
 10
1425.443359
 20
871.907471
 10
1425.693359
 20
871.907471
  0
LWPOLYLINE
  5
146
100
AcDbEntity
  8
LAYER01
370
    13
390
0
  6
Continuous
 62
   213
100
AcDbPolyline
 90
        2
 70
     0
 10
1422.263184
 20
870.881836
 10
1422.513184
 20
870.881836
  0
LWPOLYLINE
  5
147
100
AcDbEntity
  8
LAYER01
370
    13
390
0
  6
Continuous
 62
   213
100
AcDbPolyline
 90
        2
 70
     0
 10
1423.866699
 20
873.398926
 10
1424.116699
 20
873.398926
  0
LWPOLYLINE
  5
148
100
AcDbEntity
  8
LAYER01
370
    13
390
0
  6
Continuous
 62
   213
100
AcDbPolyline
 90
        2
 70
     0
 10
1424.20752
 20
873.934326
 10
1424.45752
 20
873.934326
  0
LWPOLYLINE
  5
149
100
AcDbEntity
  8
LAYER01
370
    13
390
0
  6
Continuous
 62
   213
100
AcDbPolyline
 90
        2
 70
     0
 10
1425.436035
 20
875.862549
 10
1425.686035
 20
875.862549
  0
LWPOLYLINE
  5
14A
100
AcDbEntity
  8
LAYER01
370
    13
390
0
  6
Continuous
 62
   213
100
AcDbPolyline
 90
        2
 70
     0
 10
1422.255859
 20
874.83667
 10
1422.505859
 20
874.83667
  0
LWPOLYLINE
  5
14B
100
AcDbEntity
  8
LAYER01
370
    13
390
0
  6
Continuous
 62
   213
100
AcDbPolyline
 90
        2
 70
     0
 10
1423.859375
 20
877.35376
 10
1424.109375
 20
877.35376
  0
LWPOLYLINE
  5
14C
100
AcDbEntity
  8
LAYER01
370
    13
390
0
  6
Continuous
 62
   213
100
AcDbPolyline
 90
        2
 70
     0
 10
1424.200684
 20
877.889404
 10
1424.450684
 20
877.889404
  0
LWPOLYLINE
  5
14D
100
AcDbEntity
  8
LAYER01
370
    13
390
0
  6
Continuous
 62
   213
100
AcDbPolyline
 90
        2
 70
     0
 10
1425.428711
 20
879.817383
 10
1425.678711
 20
879.817383
  0
LWPOLYLINE
  5
14E
100
AcDbEntity
  8
LAYER01
370
    13
390
0
  6
Continuous
 62
   213
100
AcDbPolyline
 90
        2
 70
     0
 10
1422.248535
 20
878.791748
 10
1422.498535
 20
878.791748
  0
LWPOLYLINE
  5
14F
100
AcDbEntity
  8
LAYER01
370
    13
390
0
  6
Continuous
 62
   213
100
AcDbPolyline
 90
        2
 70
     0
 10
1423.852051
 20
881.308838
 10
1424.102051
 20
881.308838
  0
LWPOLYLINE
  5
150
100
AcDbEntity
  8
LAYER01
370
    13
390
0
  6
Continuous
 62
   213
100
AcDbPolyline
 90
        2
 70
     0
 10
1424.193359
 20
881.844482
 10
1424.443359
 20
881.844482
  0
LWPOLYLINE
  5
151
100
AcDbEntity
  8
LAYER01
370
    13
390
0
  6
Continuous
 62
   213
100
AcDbPolyline
 90
        2
 70
     0
 10
1425.421875
 20
883.772461
 10
1425.671875
 20
883.772461
  0
LWPOLYLINE
  5
152
100
AcDbEntity
  8
LAYER01
370
    13
390
0
  6
Continuous
 62
   213
100
AcDbPolyline
 90
        2
 70
     0
 10
1422.241211
 20
882.746582
 10
1422.491211
 20
882.746582
  0
LWPOLYLINE
  5
153
100
AcDbEntity
  8
LAYER01
370
    13
390
0
  6
Continuous
 62
   213
100
AcDbPolyline
 90
        2
 70
     0
 10
1423.845215
 20
885.263672
 10
1424.095215
 20
885.263672
  0
LWPOLYLINE
  5
154
100
AcDbEntity
  8
LAYER01
370
    13
390
0
  6
Continuous
 62
   213
100
AcDbPolyline
 90
        2
 70
     0
 10
1424.186035
 20
885.799316
 10
1424.436035
 20
885.799316
  0
LWPOLYLINE
  5
155
100
AcDbEntity
  8
LAYER01
370
    13
390
0
  6
Continuous
 62
   213
100
AcDbPolyline
 90
        2
 70
     0
 10
1425.414551
 20
887.727295
 10
1425.664551
 20
887.727295
  0
LWPOLYLINE
  5
156
100
AcDbEntity
  8
LAYER01
370
    13
390
0
  6
Continuous
 62
   213
100
AcDbPolyline
 90
        2
 70
     0
 10
1422.234375
 20
886.70166
 10
1422.484375
 20
886.70166
  0
LWPOLYLINE
  5
157
100
AcDbEntity
  8
LAYER01
370
    13
390
0
  6
Continuous
 62
   213
100
AcDbPolyline
 90
        2
 70
     0
 10
1423.837891
 20
889.21875
 10
1424.087891
 20
889.21875
  0
LWPOLYLINE
  5
158
100
AcDbEntity
  8
LAYER01
370
    13
390
0
  6
Continuous
 62
   213
100
AcDbPolyline
 90
        2
 70
     0
 10
1424.179199
 20
889.754395
 10
1424.429199
 20
889.754395
  0
LWPOLYLINE
  5
159
100
AcDbEntity
  8
LAYER01
370
    13
390
0
  6
Continuous
 62
   213
100
AcDbPolyline
 90
        2
 70
     0
 10
1425.407227
 20
891.682373
 10
1425.657227
 20
891.682373
  0
LWPOLYLINE
  5
15A
100
AcDbEntity
  8
LAYER01
370
    13
390
0
  6
Continuous
 62
   213
100
AcDbPolyline
 90
        2
 70
     0
 10
1422.227051
 20
890.656494
 10
1422.477051
 20
890.656494
  0
LWPOLYLINE
  5
15B
100
AcDbEntity
  8
LAYER01
370
    13
390
0
  6
Continuous
 62
   213
100
AcDbPolyline
 90
        2
 70
     0
 10
1423.830566
 20
893.173584
 10
1424.080566
 20
893.173584
  0
LWPOLYLINE
  5
15C
100
AcDbEntity
  8
LAYER01
370
    13
390
0
  6
Continuous
 62
   213
100
AcDbPolyline
 90
        2
 70
     0
 10
1424.171875
 20
893.709229
 10
1424.421875
 20
893.709229
  0
LWPOLYLINE
  5
15D
100
AcDbEntity
  8
LAYER01
370
    13
390
0
  6
Continuous
 62
   213
100
AcDbPolyline
 90
        2
 70
     0
 10
1425.399902
 20
895.637207
 10
1425.649902
 20
895.637207
  0
LWPOLYLINE
  5
15E
100
AcDbEntity
  8
LAYER01
370
    13
390
0
  6
Continuous
 62
   213
100
AcDbPolyline
 90
        2
 70
     0
 10
1422.219727
 20
894.611572
 10
1422.469727
 20
894.611572
  0
LWPOLYLINE
  5
15F
100
AcDbEntity
  8
LAYER01
370
    13
390
0
  6
Continuous
 62
   213
100
AcDbPolyline
 90
        2
 70
     0
 10
1423.823242
 20
897.128662
 10
1424.073242
 20
897.128662
  0
LWPOLYLINE
  5
160
100
AcDbEntity
  8
LAYER01
370
    13
390
0
  6
Continuous
 62
   213
100
AcDbPolyline
 90
        2
 70
     0
 10
1424.164551
 20
897.664307
 10
1424.414551
 20
897.664307
  0
LWPOLYLINE
  5
161
100
AcDbEntity
  8
LAYER01
370
    13
390
0
  6
Continuous
 62
   213
100
AcDbPolyline
 90
        2
 70
     0
 10
1425.393066
 20
899.592285
 10
1425.643066
 20
899.592285
  0
LWPOLYLINE
  5
162
100
AcDbEntity
  8
LAYER01
370
    13
390
0
  6
Continuous
 62
   213
100
AcDbPolyline
 90
        2
 70
     0
 10
1422.212891
 20
898.566406
 10
1422.462891
 20
898.566406
  0
LWPOLYLINE
  5
163
100
AcDbEntity
  8
LAYER01
370
    13
390
0
  6
Continuous
 62
   213
100
AcDbPolyline
 90
        2
 70
     0
 10
1423.816406
 20
901.08374
 10
1424.066406
 20
901.08374
  0
LWPOLYLINE
  5
164
100
AcDbEntity
  8
LAYER01
370
    13
390
0
  6
Continuous
 62
   213
100
AcDbPolyline
 90
        2
 70
     0
 10
1424.157227
 20
901.619141
 10
1424.407227
 20
901.619141
  0
LWPOLYLINE
  5
165
100
AcDbEntity
  8
LAYER01
370
    13
390
0
  6
Continuous
 62
   213
100
AcDbPolyline
 90
        2
 70
     0
 10
1425.385742
 20
903.547119
 10
1425.635742
 20
903.547119
  0
LWPOLYLINE
  5
166
100
AcDbEntity
  8
LAYER01
370
    13
390
0
  6
Continuous
 62
   213
100
AcDbPolyline
 90
        2
 70
     0
 10
1422.205566
 20
902.521484
 10
1422.455566
 20
902.521484
  0
LWPOLYLINE
  5
167
100
AcDbEntity
  8
LAYER01
370
    13
390
0
  6
Continuous
 62
   213
100
AcDbPolyline
 90
        2
 70
     0
 10
1423.809082
 20
905.038574
 10
1424.059082
 20
905.038574
  0
LWPOLYLINE
  5
168
100
AcDbEntity
  8
LAYER01
370
    13
390
0
  6
Continuous
 62
   213
100
AcDbPolyline
 90
        2
 70
     0
 10
1424.150391
 20
905.574219
 10
1424.400391
 20
905.574219
  0
LWPOLYLINE
  5
169
100
AcDbEntity
  8
LAYER01
370
    13
390
0
  6
Continuous
 62
   213
100
AcDbPolyline
 90
        2
 70
     0
 10
1425.378418
 20
907.502197
 10
1425.628418
 20
907.502197
  0
LWPOLYLINE
  5
16A
100
AcDbEntity
  8
LAYER01
370
    13
390
0
  6
Continuous
 62
   213
100
AcDbPolyline
 90
        2
 70
     0
 10
1422.198242
 20
906.476563
 10
1422.448242
 20
906.476563
  0
LWPOLYLINE
  5
16B
100
AcDbEntity
  8
LAYER01
370
    13
390
0
  6
Continuous
 62
   213
100
AcDbPolyline
 90
        2
 70
     0
 10
1422.277344
 20
862.971924
 10
1422.527344
 20
862.971924
  0
LWPOLYLINE
  5
16C
100
AcDbEntity
  8
LAYER01
370
    13
390
0
  6
Continuous
 62
   213
100
AcDbPolyline
 90
        2
 70
     0
 10
1423.880859
 20
865.489014
 10
1424.130859
 20
865.489014
  0
LWPOLYLINE
  5
16D
100
AcDbEntity
  8
LAYER01
370
    13
390
0
  6
Continuous
 62
   213
100
AcDbPolyline
 90
        2
 70
     0
 10
1424.222168
 20
866.024414
 10
1424.472168
 20
866.024414
  0
LWPOLYLINE
  5
16E
100
AcDbEntity
  8
LAYER01
370
    13
390
0
  6
Continuous
 62
   213
100
AcDbPolyline
 90
        2
 70
     0
 10
1425.450195
 20
867.952393
 10
1425.700195
 20
867.952393
  0
LWPOLYLINE
  5
16F
100
AcDbEntity
  8
LAYER01
370
    13
390
0
  6
Continuous
 62
   213
100
AcDbPolyline
 90
        2
 70
     0
 10
1422.284668
 20
859.016846
 10
1422.534668
 20
859.016846
  0
LWPOLYLINE
  5
170
100
AcDbEntity
  8
LAYER01
370
    13
390
0
  6
Continuous
 62
   213
100
AcDbPolyline
 90
        2
 70
     0
 10
1423.888184
 20
861.533936
 10
1424.138184
 20
861.533936
  0
LWPOLYLINE
  5
171
100
AcDbEntity
  8
LAYER01
370
    13
390
0
  6
Continuous
 62
   213
100
AcDbPolyline
 90
        2
 70
     0
 10
1424.229492
 20
862.06958
 10
1424.479492
 20
862.06958
  0
LWPOLYLINE
  5
172
100
AcDbEntity
  8
LAYER01
370
    13
390
0
  6
Continuous
 62
   213
100
AcDbPolyline
 90
        2
 70
     0
 10
1425.45752
 20
863.997559
 10
1425.70752
 20
863.997559
  0
LWPOLYLINE
  5
173
100
AcDbEntity
  8
LAYER01
370
    13
390
0
  6
Continuous
 62
   213
100
AcDbPolyline
 90
        2
 70
     0
 10
1422.291504
 20
855.062012
 10
1422.541504
 20
855.062012
  0
LWPOLYLINE
  5
174
100
AcDbEntity
  8
LAYER01
370
    13
390
0
  6
Continuous
 62
   213
100
AcDbPolyline
 90
        2
 70
     0
 10
1423.895508
 20
857.579102
 10
1424.145508
 20
857.579102
  0
LWPOLYLINE
  5
175
100
AcDbEntity
  8
LAYER01
370
    13
390
0
  6
Continuous
 62
   213
100
AcDbPolyline
 90
        2
 70
     0
 10
1424.236328
 20
858.114502
 10
1424.486328
 20
858.114502
  0
LWPOLYLINE
  5
176
100
AcDbEntity
  8
LAYER01
370
    13
390
0
  6
Continuous
 62
   213
100
AcDbPolyline
 90
        2
 70
     0
 10
1425.464844
 20
860.04248
 10
1425.714844
 20
860.04248
  0
LWPOLYLINE
  5
177
100
AcDbEntity
  8
LAYER01
370
    13
390
0
  6
Continuous
 62
   213
100
AcDbPolyline
 90
        2
 70
     0
 10
1422.298828
 20
851.106934
 10
1422.548828
 20
851.106934
  0
LWPOLYLINE
  5
178
100
AcDbEntity
  8
LAYER01
370
    13
390
0
  6
Continuous
 62
   213
100
AcDbPolyline
 90
        2
 70
     0
 10
1423.902344
 20
853.624023
 10
1424.152344
 20
853.624023
  0
LWPOLYLINE
  5
179
100
AcDbEntity
  8
LAYER01
370
    13
390
0
  6
Continuous
 62
   213
100
AcDbPolyline
 90
        2
 70
     0
 10
1424.243652
 20
854.159668
 10
1424.493652
 20
854.159668
  0
LWPOLYLINE
  5
17A
100
AcDbEntity
  8
LAYER01
370
    13
390
0
  6
Continuous
 62
   213
100
AcDbPolyline
 90
        2
 70
     0
 10
1425.472168
 20
856.087646
 10
1425.722168
 20
856.087646
  0
LWPOLYLINE
  5
17B
100
AcDbEntity
  8
LAYER01
370
    13
390
0
  6
Continuous
 62
   213
100
AcDbPolyline
 90
        2
 70
     0
 10
1422.306152
 20
847.1521
 10
1422.556152
 20
847.1521
  0
LWPOLYLINE
  5
17C
100
AcDbEntity
  8
LAYER01
370
    13
390
0
  6
Continuous
 62
   213
100
AcDbPolyline
 90
        2
 70
     0
 10
1423.909668
 20
849.669189
 10
1424.159668
 20
849.669189
  0
LWPOLYLINE
  5
17D
100
AcDbEntity
  8
LAYER01
370
    13
390
0
  6
Continuous
 62
   213
100
AcDbPolyline
 90
        2
 70
     0
 10
1424.250977
 20
850.20459
 10
1424.500977
 20
850.20459
  0
LWPOLYLINE
  5
17E
100
AcDbEntity
  8
LAYER01
370
    13
390
0
  6
Continuous
 62
   213
100
AcDbPolyline
 90
        2
 70
     0
 10
1425.479004
 20
852.132568
 10
1425.729004
 20
852.132568
  0
LWPOLYLINE
  5
17F
100
AcDbEntity
  8
LAYER01
370
    13
390
0
  6
Continuous
 62
   213
100
AcDbPolyline
 90
        2
 70
     0
 10
1422.313477
 20
843.197021
 10
1422.563477
 20
843.197021
  0
LWPOLYLINE
  5
180
100
AcDbEntity
  8
LAYER01
370
    13
390
0
  6
Continuous
 62
   213
100
AcDbPolyline
 90
        2
 70
     0
 10
1423.916992
 20
845.714111
 10
1424.166992
 20
845.714111
  0
LWPOLYLINE
  5
181
100
AcDbEntity
  8
LAYER01
370
    13
390
0
  6
Continuous
 62
   213
100
AcDbPolyline
 90
        2
 70
     0
 10
1424.257813
 20
846.249756
 10
1424.507813
 20
846.249756
  0
LWPOLYLINE
  5
182
100
AcDbEntity
  8
LAYER01
370
    13
390
0
  6
Continuous
 62
   213
100
AcDbPolyline
 90
        2
 70
     0
 10
1425.486328
 20
848.177734
 10
1425.736328
 20
848.177734
  0
LWPOLYLINE
  5
183
100
AcDbEntity
  8
LAYER01
370
    13
390
0
  6
Continuous
 62
   213
100
AcDbPolyline
 90
        2
 70
     0
 10
1422.320313
 20
839.242188
 10
1422.570313
 20
839.242188
  0
LWPOLYLINE
  5
184
100
AcDbEntity
  8
LAYER01
370
    13
390
0
  6
Continuous
 62
   213
100
AcDbPolyline
 90
        2
 70
     0
 10
1423.923828
 20
841.759277
 10
1424.173828
 20
841.759277
  0
LWPOLYLINE
  5
185
100
AcDbEntity
  8
LAYER01
370
    13
390
0
  6
Continuous
 62
   213
100
AcDbPolyline
 90
        2
 70
     0
 10
1424.265137
 20
842.294678
 10
1424.515137
 20
842.294678
  0
LWPOLYLINE
  5
186
100
AcDbEntity
  8
LAYER01
370
    13
390
0
  6
Continuous
 62
   213
100
AcDbPolyline
 90
        2
 70
     0
 10
1425.493652
 20
844.222656
 10
1425.743652
 20
844.222656
  0
LWPOLYLINE
  5
187
100
AcDbEntity
  8
LAYER01
370
    13
390
0
  6
Continuous
 62
   213
100
AcDbPolyline
 90
        2
 70
     0
 10
1423.931152
 20
837.804199
 10
1424.181152
 20
837.804199
  0
LWPOLYLINE
  5
188
100
AcDbEntity
  8
LAYER01
370
    13
390
0
  6
Continuous
 62
   213
100
AcDbPolyline
 90
        2
 70
     0
 10
1424.272461
 20
838.339844
 10
1424.522461
 20
838.339844
  0
LWPOLYLINE
  5
189
100
AcDbEntity
  8
LAYER01
370
    13
390
0
  6
Continuous
 62
   213
100
AcDbPolyline
 90
        2
 70
     0
 10
1425.500488
 20
840.267822
 10
1425.750488
 20
840.267822
  0
LWPOLYLINE
  5
18A
100
AcDbEntity
  8
LAYER01
370
    13
390
0
  6
Continuous
 62
   213
100
AcDbPolyline
 90
        2
 70
     0
 10
1422.20459
 20
870.019531
 10
1422.45459
 20
870.019531
  0
LWPOLYLINE
  5
18B
100
AcDbEntity
  8
LAYER01
370
    13
390
0
  6
Continuous
 62
   213
100
AcDbPolyline
 90
        2
 70
     0
 10
1423.362793
 20
871.283447
 10
1423.612793
 20
871.283447
  0
LWPOLYLINE
  5
18C
100
AcDbEntity
  8
LAYER01
370
    13
390
0
  6
Continuous
 62
   213
100
AcDbPolyline
 90
        2
 70
     0
 10
1423.577637
 20
871.517578
 10
1423.827637
 20
871.517578
  0
LWPOLYLINE
  5
18D
100
AcDbEntity
  8
LAYER01
370
    13
390
0
  6
Continuous
 62
   213
100
AcDbPolyline
 90
        2
 70
     0
 10
1424.589844
 20
872.622559
 10
1424.839844
 20
872.622559
  0
LWPOLYLINE
  5
18E
100
AcDbEntity
  8
LAYER01
370
    13
390
0
  6
Continuous
 62
   213
100
AcDbPolyline
 90
        2
 70
     0
 10
1425.748047
 20
873.886475
 10
1425.998047
 20
873.886475
  0
LWPOLYLINE
  5
18F
100
AcDbEntity
  8
LAYER01
370
    13
390
0
  6
Continuous
 62
   213
100
AcDbPolyline
 90
        2
 70
     0
 10
1425.962891
 20
874.120605
 10
1426.212891
 20
874.120605
  0
LWPOLYLINE
  5
190
100
AcDbEntity
  8
LAYER01
370
    13
390
0
  6
Continuous
 62
   213
100
AcDbPolyline
 90
        2
 70
     0
 10
1422.248535
 20
875.101318
 10
1422.498535
 20
875.101318
  0
LWPOLYLINE
  5
191
100
AcDbEntity
  8
LAYER01
370
    13
390
0
  6
Continuous
 62
   213
100
AcDbPolyline
 90
        2
 70
     0
 10
1422.462891
 20
875.335449
 10
1422.712891
 20
875.335449
  0
LWPOLYLINE
  5
192
100
AcDbEntity
  8
LAYER01
370
    13
390
0
  6
Continuous
 62
   213
100
AcDbPolyline
 90
        2
 70
     0
 10
1423.475098
 20
876.440186
 10
1423.725098
 20
876.440186
  0
LWPOLYLINE
  5
193
100
AcDbEntity
  8
LAYER01
370
    13
390
0
  6
Continuous
 62
   213
100
AcDbPolyline
 90
        2
 70
     0
 10
1424.633789
 20
877.704346
 10
1424.883789
 20
877.704346
  0
LWPOLYLINE
  5
194
100
AcDbEntity
  8
LAYER01
370
    13
390
0
  6
Continuous
 62
   213
100
AcDbPolyline
 90
        2
 70
     0
 10
1424.848145
 20
877.938477
 10
1425.098145
 20
877.938477
  0
LWPOLYLINE
  5
195
100
AcDbEntity
  8
LAYER01
370
    13
390
0
  6
Continuous
 62
   213
100
AcDbPolyline
 90
        2
 70
     0
 10
1425.860352
 20
879.043213
 10
1426.110352
 20
879.043213
  0
LWPOLYLINE
  5
196
100
AcDbEntity
  8
LAYER01
370
    13
390
0
  6
Continuous
 62
   213
100
AcDbPolyline
 90
        2
 70
     0
 10
1422.36084
 20
880.258057
 10
1422.61084
 20
880.258057
  0
LWPOLYLINE
  5
197
100
AcDbEntity
  8
LAYER01
370
    13
390
0
  6
Continuous
 62
   213
100
AcDbPolyline
 90
        2
 70
     0
 10
1423.519043
 20
881.522217
 10
1423.769043
 20
881.522217
  0
LWPOLYLINE
  5
198
100
AcDbEntity
  8
LAYER01
370
    13
390
0
  6
Continuous
 62
   213
100
AcDbPolyline
 90
        2
 70
     0
 10
1423.733398
 20
881.756104
 10
1423.983398
 20
881.756104
  0
LWPOLYLINE
  5
199
100
AcDbEntity
  8
LAYER01
370
    13
390
0
  6
Continuous
 62
   213
100
AcDbPolyline
 90
        2
 70
     0
 10
1424.746094
 20
882.861084
 10
1424.996094
 20
882.861084
  0
LWPOLYLINE
  5
19A
100
AcDbEntity
  8
LAYER01
370
    13
390
0
  6
Continuous
 62
   213
100
AcDbPolyline
 90
        2
 70
     0
 10
1425.904297
 20
884.125244
 10
1426.154297
 20
884.125244
  0
LWPOLYLINE
  5
19B
100
AcDbEntity
  8
LAYER01
370
    13
390
0
  6
Continuous
 62
   213
100
AcDbPolyline
 90
        2
 70
     0
 10
1426.118652
 20
884.359131
 10
1426.368652
 20
884.359131
  0
LWPOLYLINE
  5
19C
100
AcDbEntity
  8
LAYER01
370
    13
390
0
  6
Continuous
 62
   213
100
AcDbPolyline
 90
        2
 70
     0
 10
1422.404297
 20
885.339844
 10
1422.654297
 20
885.339844
  0
LWPOLYLINE
  5
19D
100
AcDbEntity
  8
LAYER01
370
    13
390
0
  6
Continuous
 62
   213
100
AcDbPolyline
 90
        2
 70
     0
 10
1422.618652
 20
885.573975
 10
1422.868652
 20
885.573975
  0
LWPOLYLINE
  5
19E
100
AcDbEntity
  8
LAYER01
370
    13
390
0
  6
Continuous
 62
   213
100
AcDbPolyline
 90
        2
 70
     0
 10
1423.631348
 20
886.678955
 10
1423.881348
 20
886.678955
  0
LWPOLYLINE
  5
19F
100
AcDbEntity
  8
LAYER01
370
    13
390
0
  6
Continuous
 62
   213
100
AcDbPolyline
 90
        2
 70
     0
 10
1424.789551
 20
887.942871
 10
1425.039551
 20
887.942871
  0
LWPOLYLINE
  5
1A0
100
AcDbEntity
  8
LAYER01
370
    13
390
0
  6
Continuous
 62
   213
100
AcDbPolyline
 90
        2
 70
     0
 10
1425.003906
 20
888.177002
 10
1425.253906
 20
888.177002
  0
LWPOLYLINE
  5
1A1
100
AcDbEntity
  8
LAYER01
370
    13
390
0
  6
Continuous
 62
   213
100
AcDbPolyline
 90
        2
 70
     0
 10
1426.016602
 20
889.281982
 10
1426.266602
 20
889.281982
  0
LWPOLYLINE
  5
1A2
100
AcDbEntity
  8
LAYER01
370
    13
390
0
  6
Continuous
 62
   213
100
AcDbPolyline
 90
        2
 70
     0
 10
1422.516602
 20
890.496582
 10
1422.766602
 20
890.496582
  0
LWPOLYLINE
  5
1A3
100
AcDbEntity
  8
LAYER01
370
    13
390
0
  6
Continuous
 62
   213
100
AcDbPolyline
 90
        2
 70
     0
 10
1423.674805
 20
891.760742
 10
1423.924805
 20
891.760742
  0
LWPOLYLINE
  5
1A4
100
AcDbEntity
  8
LAYER01
370
    13
390
0
  6
Continuous
 62
   213
100
AcDbPolyline
 90
        2
 70
     0
 10
1423.88916
 20
891.994873
 10
1424.13916
 20
891.994873
  0
LWPOLYLINE
  5
1A5
100
AcDbEntity
  8
LAYER01
370
    13
390
0
  6
Continuous
 62
   213
100
AcDbPolyline
 90
        2
 70
     0
 10
1424.901855
 20
893.099609
 10
1425.151855
 20
893.099609
  0
LWPOLYLINE
  5
1A6
100
AcDbEntity
  8
LAYER01
370
    13
390
0
  6
Continuous
 62
   213
100
AcDbPolyline
 90
        2
 70
     0
 10
1426.060059
 20
894.36377
 10
1426.310059
 20
894.36377
  0
LWPOLYLINE
  5
1A7
100
AcDbEntity
  8
LAYER01
370
    13
390
0
  6
Continuous
 62
   213
100
AcDbPolyline
 90
        2
 70
     0
 10
1426.274414
 20
894.5979
 10
1426.524414
 20
894.5979
  0
LWPOLYLINE
  5
1A8
100
AcDbEntity
  8
LAYER01
370
    13
390
0
  6
Continuous
 62
   213
100
AcDbPolyline
 90
        2
 70
     0
 10
1422.560059
 20
895.578369
 10
1422.810059
 20
895.578369
  0
LWPOLYLINE
  5
1A9
100
AcDbEntity
  8
LAYER01
370
    13
390
0
  6
Continuous
 62
   213
100
AcDbPolyline
 90
        2
 70
     0
 10
1422.774902
 20
895.8125
 10
1423.024902
 20
895.8125
  0
LWPOLYLINE
  5
1AA
100
AcDbEntity
  8
LAYER01
370
    13
390
0
  6
Continuous
 62
   213
100
AcDbPolyline
 90
        2
 70
     0
 10
1423.787109
 20
896.91748
 10
1424.037109
 20
896.91748
  0
LWPOLYLINE
  5
1AB
100
AcDbEntity
  8
LAYER01
370
    13
390
0
  6
Continuous
 62
   213
100
AcDbPolyline
 90
        2
 70
     0
 10
1424.945313
 20
898.181396
 10
1425.195313
 20
898.181396
  0
LWPOLYLINE
  5
1AC
100
AcDbEntity
  8
LAYER01
370
    13
390
0
  6
Continuous
 62
   213
100
AcDbPolyline
 90
        2
 70
     0
 10
1425.160156
 20
898.415527
 10
1425.410156
 20
898.415527
  0
LWPOLYLINE
  5
1AD
100
AcDbEntity
  8
LAYER01
370
    13
390
0
  6
Continuous
 62
   213
100
AcDbPolyline
 90
        2
 70
     0
 10
1426.172363
 20
899.520508
 10
1426.422363
 20
899.520508
  0
LWPOLYLINE
  5
1AE
100
AcDbEntity
  8
LAYER01
370
    13
390
0
  6
Continuous
 62
   213
100
AcDbPolyline
 90
        2
 70
     0
 10
1422.672363
 20
900.735352
 10
1422.922363
 20
900.735352
  0
LWPOLYLINE
  5
1AF
100
AcDbEntity
  8
LAYER01
370
    13
390
0
  6
Continuous
 62
   213
100
AcDbPolyline
 90
        2
 70
     0
 10
1423.831055
 20
901.999268
 10
1424.081055
 20
901.999268
  0
LWPOLYLINE
  5
1B0
100
AcDbEntity
  8
LAYER01
370
    13
390
0
  6
Continuous
 62
   213
100
AcDbPolyline
 90
        2
 70
     0
 10
1424.04541
 20
902.233398
 10
1424.29541
 20
902.233398
  0
LWPOLYLINE
  5
1B1
100
AcDbEntity
  8
LAYER01
370
    13
390
0
  6
Continuous
 62
   213
100
AcDbPolyline
 90
        2
 70
     0
 10
1425.057617
 20
903.338379
 10
1425.307617
 20
903.338379
  0
LWPOLYLINE
  5
1B2
100
AcDbEntity
  8
LAYER01
370
    13
390
0
  6
Continuous
 62
   213
100
AcDbPolyline
 90
        2
 70
     0
 10
1426.216309
 20
904.602295
 10
1426.466309
 20
904.602295
  0
LWPOLYLINE
  5
1B3
100
AcDbEntity
  8
LAYER01
370
    13
390
0
  6
Continuous
 62
   213
100
AcDbPolyline
 90
        2
 70
     0
 10
1426.430664
 20
904.836426
 10
1426.680664
 20
904.836426
  0
LWPOLYLINE
  5
1B4
100
AcDbEntity
  8
LAYER01
370
    13
390
0
  6
Continuous
 62
   213
100
AcDbPolyline
 90
        2
 70
     0
 10
1422.716309
 20
905.817139
 10
1422.966309
 20
905.817139
  0
LWPOLYLINE
  5
1B5
100
AcDbEntity
  8
LAYER01
370
    13
390
0
  6
Continuous
 62
   213
100
AcDbPolyline
 90
        2
 70
     0
 10
1422.930664
 20
906.05127
 10
1423.180664
 20
906.05127
  0
LWPOLYLINE
  5
1B6
100
AcDbEntity
  8
LAYER01
370
    13
390
0
  6
Continuous
 62
   213
100
AcDbPolyline
 90
        2
 70
     0
 10
1423.943359
 20
907.156006
 10
1424.193359
 20
907.156006
  0
LWPOLYLINE
  5
1B7
100
AcDbEntity
  8
LAYER01
370
    13
390
0
  6
Continuous
 62
   213
100
AcDbPolyline
 90
        2
 70
     0
 10
1422.092285
 20
864.862793
 10
1422.342285
 20
864.862793
  0
LWPOLYLINE
  5
1B8
100
AcDbEntity
  8
LAYER01
370
    13
390
0
  6
Continuous
 62
   213
100
AcDbPolyline
 90
        2
 70
     0
 10
1422.307129
 20
865.09668
 10
1422.557129
 20
865.09668
  0
LWPOLYLINE
  5
1B9
100
AcDbEntity
  8
LAYER01
370
    13
390
0
  6
Continuous
 62
   213
100
AcDbPolyline
 90
        2
 70
     0
 10
1423.319336
 20
866.20166
 10
1423.569336
 20
866.20166
  0
LWPOLYLINE
  5
1BA
100
AcDbEntity
  8
LAYER01
370
    13
390
0
  6
Continuous
 62
   213
100
AcDbPolyline
 90
        2
 70
     0
 10
1424.477539
 20
867.46582
 10
1424.727539
 20
867.46582
  0
LWPOLYLINE
  5
1BB
100
AcDbEntity
  8
LAYER01
370
    13
390
0
  6
Continuous
 62
   213
100
AcDbPolyline
 90
        2
 70
     0
 10
1424.692383
 20
867.699707
 10
1424.942383
 20
867.699707
  0
LWPOLYLINE
  5
1BC
100
AcDbEntity
  8
LAYER01
370
    13
390
0
  6
Continuous
 62
   213
100
AcDbPolyline
 90
        2
 70
     0
 10
1425.70459
 20
868.804688
 10
1425.95459
 20
868.804688
  0
LWPOLYLINE
  5
1BD
100
AcDbEntity
  8
LAYER01
370
    13
390
0
  6
Continuous
 62
   213
100
AcDbPolyline
 90
        2
 70
     0
 10
1422.048828
 20
859.780762
 10
1422.298828
 20
859.780762
  0
LWPOLYLINE
  5
1BE
100
AcDbEntity
  8
LAYER01
370
    13
390
0
  6
Continuous
 62
   213
100
AcDbPolyline
 90
        2
 70
     0
 10
1423.207031
 20
861.044922
 10
1423.457031
 20
861.044922
  0
LWPOLYLINE
  5
1BF
100
AcDbEntity
  8
LAYER01
370
    13
390
0
  6
Continuous
 62
   213
100
AcDbPolyline
 90
        2
 70
     0
 10
1423.421387
 20
861.279053
 10
1423.671387
 20
861.279053
  0
LWPOLYLINE
  5
1C0
100
AcDbEntity
  8
LAYER01
370
    13
390
0
  6
Continuous
 62
   213
100
AcDbPolyline
 90
        2
 70
     0
 10
1424.434082
 20
862.383789
 10
1424.684082
 20
862.383789
  0
LWPOLYLINE
  5
1C1
100
AcDbEntity
  8
LAYER01
370
    13
390
0
  6
Continuous
 62
   213
100
AcDbPolyline
 90
        2
 70
     0
 10
1425.592285
 20
863.647949
 10
1425.842285
 20
863.647949
  0
LWPOLYLINE
  5
1C2
100
AcDbEntity
  8
LAYER01
370
    13
390
0
  6
Continuous
 62
   213
100
AcDbPolyline
 90
        2
 70
     0
 10
1425.806641
 20
863.88208
 10
1426.056641
 20
863.88208
  0
LWPOLYLINE
  5
1C3
100
AcDbEntity
  8
LAYER01
370
    13
390
0
  6
Continuous
 62
   213
100
AcDbPolyline
 90
        2
 70
     0
 10
1421.936523
 20
854.624023
 10
1422.186523
 20
854.624023
  0
LWPOLYLINE
  5
1C4
100
AcDbEntity
  8
LAYER01
370
    13
390
0
  6
Continuous
 62
   213
100
AcDbPolyline
 90
        2
 70
     0
 10
1422.150879
 20
854.858154
 10
1422.400879
 20
854.858154
  0
LWPOLYLINE
  5
1C5
100
AcDbEntity
  8
LAYER01
370
    13
390
0
  6
Continuous
 62
   213
100
AcDbPolyline
 90
        2
 70
     0
 10
1423.163574
 20
855.963135
 10
1423.413574
 20
855.963135
  0
LWPOLYLINE
  5
1C6
100
AcDbEntity
  8
LAYER01
370
    13
390
0
  6
Continuous
 62
   213
100
AcDbPolyline
 90
        2
 70
     0
 10
1424.321777
 20
857.227051
 10
1424.571777
 20
857.227051
  0
LWPOLYLINE
  5
1C7
100
AcDbEntity
  8
LAYER01
370
    13
390
0
  6
Continuous
 62
   213
100
AcDbPolyline
 90
        2
 70
     0
 10
1424.536133
 20
857.461182
 10
1424.786133
 20
857.461182
  0
LWPOLYLINE
  5
1C8
100
AcDbEntity
  8
LAYER01
370
    13
390
0
  6
Continuous
 62
   213
100
AcDbPolyline
 90
        2
 70
     0
 10
1425.548828
 20
858.566162
 10
1425.798828
 20
858.566162
  0
LWPOLYLINE
  5
1C9
100
AcDbEntity
  8
LAYER01
370
    13
390
0
  6
Continuous
 62
   213
100
AcDbPolyline
 90
        2
 70
     0
 10
1426.707031
 20
859.830078
 10
1426.957031
 20
859.830078
  0
LWPOLYLINE
  5
1CA
100
AcDbEntity
  8
LAYER01
370
    13
390
0
  6
Continuous
 62
   213
100
AcDbPolyline
 90
        2
 70
     0
 10
1421.892578
 20
849.542236
 10
1422.142578
 20
849.542236
  0
LWPOLYLINE
  5
1CB
100
AcDbEntity
  8
LAYER01
370
    13
390
0
  6
Continuous
 62
   213
100
AcDbPolyline
 90
        2
 70
     0
 10
1423.05127
 20
850.806396
 10
1423.30127
 20
850.806396
  0
LWPOLYLINE
  5
1CC
100
AcDbEntity
  8
LAYER01
370
    13
390
0
  6
Continuous
 62
   213
100
AcDbPolyline
 90
        2
 70
     0
 10
1423.265625
 20
851.040283
 10
1423.515625
 20
851.040283
  0
LWPOLYLINE
  5
1CD
100
AcDbEntity
  8
LAYER01
370
    13
390
0
  6
Continuous
 62
   213
100
AcDbPolyline
 90
        2
 70
     0
 10
1424.277832
 20
852.145264
 10
1424.527832
 20
852.145264
  0
LWPOLYLINE
  5
1CE
100
AcDbEntity
  8
LAYER01
370
    13
390
0
  6
Continuous
 62
   213
100
AcDbPolyline
 90
        2
 70
     0
 10
1425.436523
 20
853.409424
 10
1425.686523
 20
853.409424
  0
LWPOLYLINE
  5
1CF
100
AcDbEntity
  8
LAYER01
370
    13
390
0
  6
Continuous
 62
   213
100
AcDbPolyline
 90
        2
 70
     0
 10
1425.650879
 20
853.643311
 10
1425.900879
 20
853.643311
  0
LWPOLYLINE
  5
1D0
100
AcDbEntity
  8
LAYER01
370
    13
390
0
  6
Continuous
 62
   213
100
AcDbPolyline
 90
        2
 70
     0
 10
1426.663086
 20
854.748291
 10
1426.913086
 20
854.748291
  0
LWPOLYLINE
  5
1D1
100
AcDbEntity
  8
LAYER01
370
    13
390
0
  6
Continuous
 62
   213
100
AcDbPolyline
 90
        2
 70
     0
 10
1421.780762
 20
844.385498
 10
1422.030762
 20
844.385498
  0
LWPOLYLINE
  5
1D2
100
AcDbEntity
  8
LAYER01
370
    13
390
0
  6
Continuous
 62
   213
100
AcDbPolyline
 90
        2
 70
     0
 10
1421.995117
 20
844.619629
 10
1422.245117
 20
844.619629
  0
LWPOLYLINE
  5
1D3
100
AcDbEntity
  8
LAYER01
370
    13
390
0
  6
Continuous
 62
   213
100
AcDbPolyline
 90
        2
 70
     0
 10
1423.007324
 20
845.724365
 10
1423.257324
 20
845.724365
  0
LWPOLYLINE
  5
1D4
100
AcDbEntity
  8
LAYER01
370
    13
390
0
  6
Continuous
 62
   213
100
AcDbPolyline
 90
        2
 70
     0
 10
1424.165527
 20
846.988525
 10
1424.415527
 20
846.988525
  0
LWPOLYLINE
  5
1D5
100
AcDbEntity
  8
LAYER01
370
    13
390
0
  6
Continuous
 62
   213
100
AcDbPolyline
 90
        2
 70
     0
 10
1424.380371
 20
847.222656
 10
1424.630371
 20
847.222656
  0
LWPOLYLINE
  5
1D6
100
AcDbEntity
  8
LAYER01
370
    13
390
0
  6
Continuous
 62
   213
100
AcDbPolyline
 90
        2
 70
     0
 10
1425.392578
 20
848.327393
 10
1425.642578
 20
848.327393
  0
LWPOLYLINE
  5
1D7
100
AcDbEntity
  8
LAYER01
370
    13
390
0
  6
Continuous
 62
   213
100
AcDbPolyline
 90
        2
 70
     0
 10
1426.550781
 20
849.591553
 10
1426.800781
 20
849.591553
  0
LWPOLYLINE
  5
1D8
100
AcDbEntity
  8
LAYER01
370
    13
390
0
  6
Continuous
 62
   213
100
AcDbPolyline
 90
        2
 70
     0
 10
1421.736816
 20
839.303711
 10
1421.986816
 20
839.303711
  0
LWPOLYLINE
  5
1D9
100
AcDbEntity
  8
LAYER01
370
    13
390
0
  6
Continuous
 62
   213
100
AcDbPolyline
 90
        2
 70
     0
 10
1422.89502
 20
840.567627
 10
1423.14502
 20
840.567627
  0
LWPOLYLINE
  5
1DA
100
AcDbEntity
  8
LAYER01
370
    13
390
0
  6
Continuous
 62
   213
100
AcDbPolyline
 90
        2
 70
     0
 10
1423.109863
 20
840.801758
 10
1423.359863
 20
840.801758
  0
LWPOLYLINE
  5
1DB
100
AcDbEntity
  8
LAYER01
370
    13
390
0
  6
Continuous
 62
   213
100
AcDbPolyline
 90
        2
 70
     0
 10
1424.12207
 20
841.906738
 10
1424.37207
 20
841.906738
  0
LWPOLYLINE
  5
1DC
100
AcDbEntity
  8
LAYER01
370
    13
390
0
  6
Continuous
 62
   213
100
AcDbPolyline
 90
        2
 70
     0
 10
1425.280273
 20
843.170654
 10
1425.530273
 20
843.170654
  0
LWPOLYLINE
  5
1DD
100
AcDbEntity
  8
LAYER01
370
    13
390
0
  6
Continuous
 62
   213
100
AcDbPolyline
 90
        2
 70
     0
 10
1425.495117
 20
843.404785
 10
1425.745117
 20
843.404785
  0
LWPOLYLINE
  5
1DE
100
AcDbEntity
  8
LAYER01
370
    13
390
0
  6
Continuous
 62
   213
100
AcDbPolyline
 90
        2
 70
     0
 10
1426.507324
 20
844.509766
 10
1426.757324
 20
844.509766
  0
LWPOLYLINE
  5
1DF
100
AcDbEntity
  8
LAYER01
370
    13
390
0
  6
Continuous
 62
   213
100
AcDbPolyline
 90
        2
 70
     0
 10
1425.236816
 20
838.088867
 10
1425.486816
 20
838.088867
  0
LWPOLYLINE
  5
1E0
100
AcDbEntity
  8
LAYER01
370
    13
390
0
  6
Continuous
 62
   213
100
AcDbPolyline
 90
        2
 70
     0
 10
1426.39502
 20
839.353027
 10
1426.64502
 20
839.353027
  0
LWPOLYLINE
  5
1E1
100
AcDbEntity
  8
LAYER01
370
    13
390
0
  6
Continuous
 62
   213
100
AcDbPolyline
 90
        2
 70
     0
 10
1426.609375
 20
839.587158
 10
1426.859375
 20
839.587158
  0
ENDBLK
  5
1E2
100
AcDbEntity
  8
0
390
0
100
AcDbBlockEnd
  0
BLOCK
  5
1E8
100
AcDbEntity
  8
0
390
0
100
AcDbBlockBegin
  2
X80_F_US_U_M_79
 70
     0
 10
0.0
 20
0.0
 30
0.0
  3
X80_F_US_U_M_79
  1

  0
LWPOLYLINE
  5
1E9
100
AcDbEntity
  8
LAYER01
370
    35
390
0
  6
Continuous
 62
   134
100
AcDbPolyline
 90
        2
 70
     0
 10
0.0
 20
9.250122
 10
3.799805
 20
9.250122
  0
LWPOLYLINE
  5
1EA
100
AcDbEntity
  8
LAYER01
370
    35
390
0
  6
Continuous
 62
   134
100
AcDbPolyline
 90
        2
 70
     0
 10
2.200195
 20
9.250122
 10
2.200195
 20
-9.249878
  0
LWPOLYLINE
  5
1EB
100
AcDbEntity
  8
LAYER01
370
    35
390
0
  6
Continuous
 62
   134
100
AcDbPolyline
 90
        2
 70
     0
 10
2.200195
 20
-9.249878
 10
0.0
 20
-9.249878
  0
LWPOLYLINE
  5
1EC
100
AcDbEntity
  8
LAYER01
370
    35
390
0
  6
Continuous
 62
   134
100
AcDbPolyline
 90
        2
 70
     0
 10
3.799805
 20
9.250122
 10
3.799805
 20
-9.249878
  0
LWPOLYLINE
  5
1ED
100
AcDbEntity
  8
LAYER01
370
    35
390
0
  6
Continuous
 62
   134
100
AcDbPolyline
 90
        2
 70
     0
 10
3.799805
 20
-9.249878
 10
2.200195
 20
-9.249878
  0
INSERT
  5
1FB
100
AcDbEntity
  8
LAYER01
390
0
100
AcDbBlockReference
  2
2--C2EV-CI_U_M_79
 10
10.599915
 20
0.0
 30
0.0
 50
180.0
  0
ENDBLK
  5
1FC
100
AcDbEntity
  8
0
390
0
100
AcDbBlockEnd
  0
BLOCK
  5
1EF
100
AcDbEntity
  8
0
390
0
100
AcDbBlockBegin
  2
2--C2EV-CI_U_M_79
 70
     0
 10
0.0
 20
0.0
 30
0.0
  3
2--C2EV-CI_U_M_79
  1

  0
LWPOLYLINE
  5
1F0
100
AcDbEntity
  8
LAYER21
370
    13
390
0
  6
Continuous
 62
   213
100
AcDbPolyline
 90
        4
 70
     1
 10
6.80011
 20
-7.508911
 10
6.80011
 20
7.508911
 10
-0.000183
 20
7.508911
 10
-0.000183
 20
-7.508911
  0
LWPOLYLINE
  5
1F2
100
AcDbEntity
  8
LAYER21
370
    13
390
0
  6
Continuous
 62
   213
100
AcDbPolyline
 90
        8
 70
     1
 10
5.98761
 20
-3.754517
 10
6.190735
 20
-3.218872
 42
0.18335
 10
6.190735
 20
3.218872
 10
5.98761
 20
3.754517
 10
0.812317
 20
3.754517
 10
0.610168
 20
3.220825
 42
0.183462
 10
0.611633
 20
-3.220581
 10
0.812317
 20
-3.749634
  0
LWPOLYLINE
  5
1F3
100
AcDbEntity
  8
LAYER21
370
    13
390
0
  6
Continuous
 62
   213
100
AcDbPolyline
 90
        8
 70
     1
 10
5.98761
 20
3.749634
 10
6.338196
 20
4.383911
 42
0.258495
 10
6.335266
 20
6.877808
 10
5.98761
 20
7.504028
 10
0.812317
 20
7.504028
 10
0.464661
 20
6.877808
 42
0.258495
 10
0.461731
 20
4.383911
 10
0.812317
 20
3.749634
  0
LWPOLYLINE
  5
1F4
100
AcDbEntity
  8
LAYER21
370
    13
390
0
  6
Continuous
 62
   213
100
AcDbPolyline
 90
        8
 70
     1
 10
5.98761
 20
-7.513794
 10
6.338196
 20
-6.879272
 42
0.258495
 10
6.335266
 20
-4.38562
 10
5.98761
 20
-3.759399
 10
0.812317
 20
-3.759399
 10
0.464661
 20
-4.38562
 42
0.258495
 10
0.461731
 20
-6.879272
 10
0.812317
 20
-7.513794
  0
LWPOLYLINE
  5
1F5
100
AcDbEntity
  8
LAYER21
370
    13
390
0
  6
Continuous
 62
   213
100
AcDbPolyline
 90
        2
 70
     0
 10
5.98761
 20
-3.754517
 10
0.812317
 20
-3.754517
  0
LWPOLYLINE
  5
1F6
100
AcDbEntity
  8
LAYER21
370
    13
390
0
  6
Continuous
 62
   213
100
AcDbPolyline
 90
        2
 70
     0
 10
5.98761
 20
3.754517
 10
0.812317
 20
3.754517
  0
LWPOLYLINE
  5
1F7
100
AcDbEntity
  8
LAYER21
370
    13
390
0
  6
Continuous
 62
   213
100
AcDbPolyline
 90
        2
 70
     0
 10
-0.612
 20
-0.000122
 10
7.411926
 20
-0.000122
  0
LWPOLYLINE
  5
1F8
100
AcDbEntity
  8
LAYER21
370
    13
390
0
  6
Continuous
 62
   213
100
AcDbPolyline
 90
        5
 70
     1
 10
6.80011
 20
-4.002563
 10
86.124329
 20
-4.002563
 10
96.80011
 20
-0.000122
 10
86.124329
 20
4.002319
 10
6.80011
 20
4.002319
  0
LWPOLYLINE
  5
1F9
100
AcDbEntity
  8
LAYER21
370
    13
390
0
  6
Continuous
 62
   213
100
AcDbPolyline
 90
        2
 70
     0
 10
-6.577332
 20
-0.000122
 10
110.911438
 20
-0.000122
  0
ENDBLK
  5
1FA
100
AcDbEntity
  8
0
390
0
100
AcDbBlockEnd
  0
BLOCK
  5
202
100
AcDbEntity
  8
0
390
0
100
AcDbBlockBegin
  2
HATCH--G_U_79
 70
     0
 10
0.0
 20
0.0
 30
0.0
  3
HATCH--G_U_79
  1

  0
LWPOLYLINE
  5
203
100
AcDbEntity
  8
LAYER01
370
    13
390
0
  6
Continuous
 62
   213
100
AcDbPolyline
 90
        2
 70
     0
 10
1391.370605
 20
908.086182
 10
1390.370605
 20
909.086182
  0
LWPOLYLINE
  5
204
100
AcDbEntity
  8
LAYER01
370
    13
390
0
  6
Continuous
 62
   213
100
AcDbPolyline
 90
        2
 70
     0
 10
1389.125488
 20
908.086182
 10
1388.125488
 20
909.086182
  0
LWPOLYLINE
  5
205
100
AcDbEntity
  8
LAYER01
370
    13
390
0
  6
Continuous
 62
   213
100
AcDbPolyline
 90
        2
 70
     0
 10
1386.880371
 20
908.086182
 10
1385.880371
 20
909.086182
  0
LWPOLYLINE
  5
206
100
AcDbEntity
  8
LAYER01
370
    13
390
0
  6
Continuous
 62
   213
100
AcDbPolyline
 90
        2
 70
     0
 10
1384.635254
 20
908.086182
 10
1383.635254
 20
909.086182
  0
LWPOLYLINE
  5
207
100
AcDbEntity
  8
LAYER01
370
    13
390
0
  6
Continuous
 62
   213
100
AcDbPolyline
 90
        2
 70
     0
 10
1382.390137
 20
908.086182
 10
1381.390137
 20
909.086182
  0
LWPOLYLINE
  5
208
100
AcDbEntity
  8
LAYER01
370
    13
390
0
  6
Continuous
 62
   213
100
AcDbPolyline
 90
        2
 70
     0
 10
1380.145508
 20
908.086182
 10
1379.145508
 20
909.086182
  0
LWPOLYLINE
  5
209
100
AcDbEntity
  8
LAYER01
370
    13
390
0
  6
Continuous
 62
   213
100
AcDbPolyline
 90
        2
 70
     0
 10
1377.900391
 20
908.086182
 10
1376.900391
 20
909.086182
  0
LWPOLYLINE
  5
20A
100
AcDbEntity
  8
LAYER01
370
    13
390
0
  6
Continuous
 62
   213
100
AcDbPolyline
 90
        2
 70
     0
 10
1375.655273
 20
908.086182
 10
1374.655273
 20
909.086182
  0
LWPOLYLINE
  5
20B
100
AcDbEntity
  8
LAYER01
370
    13
390
0
  6
Continuous
 62
   213
100
AcDbPolyline
 90
        2
 70
     0
 10
1373.410156
 20
908.086182
 10
1372.410156
 20
909.086182
  0
LWPOLYLINE
  5
20C
100
AcDbEntity
  8
LAYER01
370
    13
390
0
  6
Continuous
 62
   213
100
AcDbPolyline
 90
        2
 70
     0
 10
1371.165039
 20
908.086182
 10
1370.165039
 20
909.086182
  0
LWPOLYLINE
  5
20D
100
AcDbEntity
  8
LAYER01
370
    13
390
0
  6
Continuous
 62
   213
100
AcDbPolyline
 90
        2
 70
     0
 10
1368.919922
 20
908.086182
 10
1367.919922
 20
909.086182
  0
LWPOLYLINE
  5
20E
100
AcDbEntity
  8
LAYER01
370
    13
390
0
  6
Continuous
 62
   213
100
AcDbPolyline
 90
        2
 70
     0
 10
1366.674805
 20
908.086182
 10
1365.674805
 20
909.086182
  0
LWPOLYLINE
  5
20F
100
AcDbEntity
  8
LAYER01
370
    13
390
0
  6
Continuous
 62
   213
100
AcDbPolyline
 90
        2
 70
     0
 10
1364.429688
 20
908.086182
 10
1363.429688
 20
909.086182
  0
LWPOLYLINE
  5
210
100
AcDbEntity
  8
LAYER01
370
    13
390
0
  6
Continuous
 62
   213
100
AcDbPolyline
 90
        2
 70
     0
 10
1362.18457
 20
908.086182
 10
1361.18457
 20
909.086182
  0
LWPOLYLINE
  5
211
100
AcDbEntity
  8
LAYER01
370
    13
390
0
  6
Continuous
 62
   213
100
AcDbPolyline
 90
        2
 70
     0
 10
1359.939941
 20
908.086182
 10
1358.939941
 20
909.086182
  0
LWPOLYLINE
  5
212
100
AcDbEntity
  8
LAYER01
370
    13
390
0
  6
Continuous
 62
   213
100
AcDbPolyline
 90
        2
 70
     0
 10
1355.228027
 20
908.307861
 10
1354.449707
 20
909.086182
  0
LWPOLYLINE
  5
213
100
AcDbEntity
  8
LAYER01
370
    13
390
0
  6
Continuous
 62
   213
100
AcDbPolyline
 90
        2
 70
     0
 10
1353.20459
 20
908.086182
 10
1352.20459
 20
909.086182
  0
LWPOLYLINE
  5
214
100
AcDbEntity
  8
LAYER01
370
    13
390
0
  6
Continuous
 62
   213
100
AcDbPolyline
 90
        2
 70
     0
 10
1350.959473
 20
908.086182
 10
1349.959473
 20
909.086182
  0
LWPOLYLINE
  5
215
100
AcDbEntity
  8
LAYER01
370
    13
390
0
  6
Continuous
 62
   213
100
AcDbPolyline
 90
        2
 70
     0
 10
1348.714355
 20
908.086182
 10
1347.714355
 20
909.086182
  0
LWPOLYLINE
  5
216
100
AcDbEntity
  8
LAYER01
370
    13
390
0
  6
Continuous
 62
   213
100
AcDbPolyline
 90
        2
 70
     0
 10
1346.469238
 20
908.086182
 10
1345.469238
 20
909.086182
  0
LWPOLYLINE
  5
217
100
AcDbEntity
  8
LAYER01
370
    13
390
0
  6
Continuous
 62
   213
100
AcDbPolyline
 90
        2
 70
     0
 10
1344.224121
 20
908.086182
 10
1343.224121
 20
909.086182
  0
LWPOLYLINE
  5
218
100
AcDbEntity
  8
LAYER01
370
    13
390
0
  6
Continuous
 62
   213
100
AcDbPolyline
 90
        2
 70
     0
 10
1341.979004
 20
908.086182
 10
1340.979004
 20
909.086182
  0
LWPOLYLINE
  5
219
100
AcDbEntity
  8
LAYER01
370
    13
390
0
  6
Continuous
 62
   213
100
AcDbPolyline
 90
        2
 70
     0
 10
1339.733887
 20
908.086182
 10
1338.733887
 20
909.086182
  0
LWPOLYLINE
  5
21A
100
AcDbEntity
  8
LAYER01
370
    13
390
0
  6
Continuous
 62
   213
100
AcDbPolyline
 90
        2
 70
     0
 10
1337.489258
 20
908.086182
 10
1336.489258
 20
909.086182
  0
LWPOLYLINE
  5
21B
100
AcDbEntity
  8
LAYER01
370
    13
390
0
  6
Continuous
 62
   213
100
AcDbPolyline
 90
        2
 70
     0
 10
1335.244141
 20
908.086182
 10
1334.244141
 20
909.086182
  0
LWPOLYLINE
  5
21C
100
AcDbEntity
  8
LAYER01
370
    13
390
0
  6
Continuous
 62
   213
100
AcDbPolyline
 90
        2
 70
     0
 10
1332.999023
 20
908.086182
 10
1331.999023
 20
909.086182
  0
LWPOLYLINE
  5
21D
100
AcDbEntity
  8
LAYER01
370
    13
390
0
  6
Continuous
 62
   213
100
AcDbPolyline
 90
        2
 70
     0
 10
1330.753906
 20
908.086182
 10
1329.753906
 20
909.086182
  0
LWPOLYLINE
  5
21E
100
AcDbEntity
  8
LAYER01
370
    13
390
0
  6
Continuous
 62
   213
100
AcDbPolyline
 90
        2
 70
     0
 10
1328.508789
 20
908.086182
 10
1327.508789
 20
909.086182
  0
LWPOLYLINE
  5
21F
100
AcDbEntity
  8
LAYER01
370
    13
390
0
  6
Continuous
 62
   213
100
AcDbPolyline
 90
        2
 70
     0
 10
1326.263672
 20
908.086182
 10
1325.263672
 20
909.086182
  0
LWPOLYLINE
  5
220
100
AcDbEntity
  8
LAYER01
370
    13
390
0
  6
Continuous
 62
   213
100
AcDbPolyline
 90
        2
 70
     0
 10
1324.018555
 20
908.086182
 10
1323.018555
 20
909.086182
  0
LWPOLYLINE
  5
221
100
AcDbEntity
  8
LAYER01
370
    13
390
0
  6
Continuous
 62
   213
100
AcDbPolyline
 90
        2
 70
     0
 10
1321.773438
 20
908.086182
 10
1320.773438
 20
909.086182
  0
LWPOLYLINE
  5
222
100
AcDbEntity
  8
LAYER01
370
    13
390
0
  6
Continuous
 62
   213
100
AcDbPolyline
 90
        2
 70
     0
 10
1319.728027
 20
907.886719
 10
1318.928223
 20
908.686523
  0
LWPOLYLINE
  5
223
100
AcDbEntity
  8
LAYER01
370
    13
390
0
  6
Continuous
 62
   213
100
AcDbPolyline
 90
        2
 70
     0
 10
1319.728027
 20
905.641602
 10
1318.728027
 20
906.641602
  0
LWPOLYLINE
  5
224
100
AcDbEntity
  8
LAYER01
370
    13
390
0
  6
Continuous
 62
   213
100
AcDbPolyline
 90
        2
 70
     0
 10
1319.728027
 20
903.396729
 10
1318.728027
 20
904.396729
  0
LWPOLYLINE
  5
225
100
AcDbEntity
  8
LAYER01
370
    13
390
0
  6
Continuous
 62
   213
100
AcDbPolyline
 90
        2
 70
     0
 10
1319.728027
 20
901.151611
 10
1318.728027
 20
902.151611
  0
LWPOLYLINE
  5
226
100
AcDbEntity
  8
LAYER01
370
    13
390
0
  6
Continuous
 62
   213
100
AcDbPolyline
 90
        2
 70
     0
 10
1319.54834
 20
899.086182
 10
1318.728027
 20
899.906494
  0
LWPOLYLINE
  5
227
100
AcDbEntity
  8
LAYER01
370
    13
390
0
  6
Continuous
 62
   213
100
AcDbPolyline
 90
        2
 70
     0
 10
1393.615723
 20
908.086182
 10
1392.615723
 20
909.086182
  0
LWPOLYLINE
  5
228
100
AcDbEntity
  8
LAYER01
370
    13
390
0
  6
Continuous
 62
   213
100
AcDbPolyline
 90
        2
 70
     0
 10
1395.86084
 20
908.086182
 10
1394.86084
 20
909.086182
  0
LWPOLYLINE
  5
229
100
AcDbEntity
  8
LAYER01
370
    13
390
0
  6
Continuous
 62
   213
100
AcDbPolyline
 90
        2
 70
     0
 10
1398.105957
 20
908.086182
 10
1397.105957
 20
909.086182
  0
LWPOLYLINE
  5
22A
100
AcDbEntity
  8
LAYER01
370
    13
390
0
  6
Continuous
 62
   213
100
AcDbPolyline
 90
        2
 70
     0
 10
1400.351074
 20
908.086182
 10
1399.351074
 20
909.086182
  0
LWPOLYLINE
  5
22B
100
AcDbEntity
  8
LAYER01
370
    13
390
0
  6
Continuous
 62
   213
100
AcDbPolyline
 90
        2
 70
     0
 10
1402.595703
 20
908.086182
 10
1401.595703
 20
909.086182
  0
LWPOLYLINE
  5
22C
100
AcDbEntity
  8
LAYER01
370
    13
390
0
  6
Continuous
 62
   213
100
AcDbPolyline
 90
        2
 70
     0
 10
1404.84082
 20
908.086182
 10
1403.84082
 20
909.086182
  0
LWPOLYLINE
  5
22D
100
AcDbEntity
  8
LAYER01
370
    13
390
0
  6
Continuous
 62
   213
100
AcDbPolyline
 90
        2
 70
     0
 10
1407.085938
 20
908.086182
 10
1406.085938
 20
909.086182
  0
LWPOLYLINE
  5
22E
100
AcDbEntity
  8
LAYER01
370
    13
390
0
  6
Continuous
 62
   213
100
AcDbPolyline
 90
        2
 70
     0
 10
1409.331055
 20
908.086182
 10
1408.331055
 20
909.086182
  0
LWPOLYLINE
  5
22F
100
AcDbEntity
  8
LAYER01
370
    13
390
0
  6
Continuous
 62
   213
100
AcDbPolyline
 90
        2
 70
     0
 10
1411.576172
 20
908.086182
 10
1410.576172
 20
909.086182
  0
LWPOLYLINE
  5
230
100
AcDbEntity
  8
LAYER01
370
    13
390
0
  6
Continuous
 62
   213
100
AcDbPolyline
 90
        2
 70
     0
 10
1413.821289
 20
908.086182
 10
1412.821289
 20
909.086182
  0
LWPOLYLINE
  5
231
100
AcDbEntity
  8
LAYER01
370
    13
390
0
  6
Continuous
 62
   213
100
AcDbPolyline
 90
        2
 70
     0
 10
1416.066406
 20
908.086182
 10
1415.066406
 20
909.086182
  0
LWPOLYLINE
  5
232
100
AcDbEntity
  8
LAYER01
370
    13
390
0
  6
Continuous
 62
   213
100
AcDbPolyline
 90
        2
 70
     0
 10
1418.311523
 20
908.086182
 10
1417.311523
 20
909.086182
  0
LWPOLYLINE
  5
233
100
AcDbEntity
  8
LAYER01
370
    13
390
0
  6
Continuous
 62
   213
100
AcDbPolyline
 90
        2
 70
     0
 10
1420.556641
 20
908.086182
 10
1419.556641
 20
909.086182
  0
LWPOLYLINE
  5
234
100
AcDbEntity
  8
LAYER01
370
    13
390
0
  6
Continuous
 62
   213
100
AcDbPolyline
 90
        2
 70
     0
 10
1422.80127
 20
908.086182
 10
1421.80127
 20
909.086182
  0
LWPOLYLINE
  5
235
100
AcDbEntity
  8
LAYER01
370
    13
390
0
  6
Continuous
 62
   213
100
AcDbPolyline
 90
        2
 70
     0
 10
1425.046387
 20
908.086182
 10
1424.046387
 20
909.086182
  0
LWPOLYLINE
  5
236
100
AcDbEntity
  8
LAYER01
370
    13
390
0
  6
Continuous
 62
   213
100
AcDbPolyline
 90
        2
 70
     0
 10
1426.728027
 20
908.649902
 10
1425.728027
 20
909.649902
  0
LWPOLYLINE
  5
237
100
AcDbEntity
  8
LAYER01
370
    13
390
0
  6
Continuous
 62
   213
100
AcDbPolyline
 90
        2
 70
     0
 10
1426.728027
 20
910.89502
 10
1425.728027
 20
911.89502
  0
LWPOLYLINE
  5
238
100
AcDbEntity
  8
LAYER01
370
    13
390
0
  6
Continuous
 62
   213
100
AcDbPolyline
 90
        2
 70
     0
 10
1426.728027
 20
913.139893
 10
1425.728027
 20
914.139893
  0
LWPOLYLINE
  5
239
100
AcDbEntity
  8
LAYER01
370
    13
390
0
  6
Continuous
 62
   213
100
AcDbPolyline
 90
        2
 70
     0
 10
1426.728027
 20
915.38501
 10
1425.728027
 20
916.38501
  0
LWPOLYLINE
  5
23A
100
AcDbEntity
  8
LAYER01
370
    13
390
0
  6
Continuous
 62
   213
100
AcDbPolyline
 90
        2
 70
     0
 10
1426.728027
 20
917.630127
 10
1425.728027
 20
918.630127
  0
LWPOLYLINE
  5
23B
100
AcDbEntity
  8
LAYER01
370
    13
390
0
  6
Continuous
 62
   213
100
AcDbPolyline
 90
        2
 70
     0
 10
1426.728027
 20
919.875244
 10
1425.728027
 20
920.875244
  0
LWPOLYLINE
  5
23C
100
AcDbEntity
  8
LAYER01
370
    13
390
0
  6
Continuous
 62
   213
100
AcDbPolyline
 90
        2
 70
     0
 10
1426.728027
 20
922.120117
 10
1425.728027
 20
923.120117
  0
LWPOLYLINE
  5
23D
100
AcDbEntity
  8
LAYER01
370
    13
390
0
  6
Continuous
 62
   213
100
AcDbPolyline
 90
        2
 70
     0
 10
1426.728027
 20
924.365234
 10
1425.728027
 20
925.365234
  0
LWPOLYLINE
  5
23E
100
AcDbEntity
  8
LAYER01
370
    13
390
0
  6
Continuous
 62
   213
100
AcDbPolyline
 90
        2
 70
     0
 10
1426.728027
 20
926.610352
 10
1425.728027
 20
927.610352
  0
LWPOLYLINE
  5
23F
100
AcDbEntity
  8
LAYER01
370
    13
390
0
  6
Continuous
 62
   213
100
AcDbPolyline
 90
        2
 70
     0
 10
1425.987305
 20
934.086182
 10
1425.728027
 20
934.345459
  0
LWPOLYLINE
  5
240
100
AcDbEntity
  8
LAYER01
370
    13
390
0
  6
Continuous
 62
   213
100
AcDbPolyline
 90
        2
 70
     0
 10
1426.728027
 20
935.590576
 10
1425.728027
 20
936.590576
  0
LWPOLYLINE
  5
241
100
AcDbEntity
  8
LAYER01
370
    13
390
0
  6
Continuous
 62
   213
100
AcDbPolyline
 90
        2
 70
     0
 10
1426.728027
 20
937.835693
 10
1425.728027
 20
938.835693
  0
LWPOLYLINE
  5
242
100
AcDbEntity
  8
LAYER01
370
    13
390
0
  6
Continuous
 62
   213
100
AcDbPolyline
 90
        2
 70
     0
 10
1426.728027
 20
940.080811
 10
1425.728027
 20
941.080811
  0
LWPOLYLINE
  5
243
100
AcDbEntity
  8
LAYER01
370
    13
390
0
  6
Continuous
 62
   213
100
AcDbPolyline
 90
        2
 70
     0
 10
1426.728027
 20
942.325928
 10
1425.728027
 20
943.325928
  0
LWPOLYLINE
  5
244
100
AcDbEntity
  8
LAYER01
370
    13
390
0
  6
Continuous
 62
   213
100
AcDbPolyline
 90
        2
 70
     0
 10
1426.728027
 20
944.570801
 10
1425.728027
 20
945.570801
  0
LWPOLYLINE
  5
245
100
AcDbEntity
  8
LAYER01
370
    13
390
0
  6
Continuous
 62
   213
100
AcDbPolyline
 90
        2
 70
     0
 10
1426.728027
 20
946.815918
 10
1425.728027
 20
947.815918
  0
LWPOLYLINE
  5
246
100
AcDbEntity
  8
LAYER01
370
    13
390
0
  6
Continuous
 62
   213
100
AcDbPolyline
 90
        2
 70
     0
 10
1426.728027
 20
949.061035
 10
1425.728027
 20
950.061035
  0
LWPOLYLINE
  5
247
100
AcDbEntity
  8
LAYER01
370
    13
390
0
  6
Continuous
 62
   213
100
AcDbPolyline
 90
        2
 70
     0
 10
1426.728027
 20
951.306152
 10
1425.728027
 20
952.306152
  0
ENDBLK
  5
248
100
AcDbEntity
  8
0
390
0
100
AcDbBlockEnd
  0
BLOCK
  5
25A
100
AcDbEntity
  8
0
390
0
100
AcDbBlockBegin
  2
1_115_FV_U_79
 70
     0
 10
0.0
 20
0.0
 30
0.0
  3
1_115_FV_U_79
  1

  0
LWPOLYLINE
  5
25B
100
AcDbEntity
  8
LAYER01
370
    35
390
0
  6
Continuous
 62
   134
100
AcDbPolyline
 90
        2
 70
     0
 10
0.0
 20
45.000122
 10
65.0
 20
45.000122
  0
LWPOLYLINE
  5
25C
100
AcDbEntity
  8
LAYER01
370
    35
390
0
  6
Continuous
 62
   134
100
AcDbPolyline
 90
        2
 70
     0
 10
65.0
 20
45.000122
 10
115.0
 20
45.000122
  0
LWPOLYLINE
  5
25D
100
AcDbEntity
  8
LAYER01
370
    35
390
0
  6
Continuous
 62
   134
100
AcDbPolyline
 90
        2
 70
     0
 10
115.0
 20
45.000122
 10
115.0
 20
5.000122
  0
LWPOLYLINE
  5
25E
100
AcDbEntity
  8
LAYER01
370
    25
390
0
  6
Continuous
 62
    92
100
AcDbPolyline
 90
        2
 70
     0
 10
95.0
 20
45.000122
 10
95.0
 20
5.000122
  0
LWPOLYLINE
  5
25F
100
AcDbEntity
  8
LAYER01
370
    35
390
0
  6
Continuous
 62
   134
100
AcDbPolyline
 90
        2
 70
     0
 10
115.0
 20
-4.999878
 10
115.0
 20
-44.999878
  0
LWPOLYLINE
  5
260
100
AcDbEntity
  8
LAYER01
370
    25
390
0
  6
Continuous
 62
    92
100
AcDbPolyline
 90
        2
 70
     0
 10
95.0
 20
-4.999878
 10
95.0
 20
-44.999878
  0
LWPOLYLINE
  5
261
100
AcDbEntity
  8
LAYER01
370
    35
390
0
  6
Continuous
 62
   134
100
AcDbPolyline
 90
        2
 70
     0
 10
115.0
 20
-44.999878
 10
65.0
 20
-44.999878
  0
LWPOLYLINE
  5
262
100
AcDbEntity
  8
LAYER01
370
    35
390
0
  6
Continuous
 62
   134
100
AcDbPolyline
 90
        2
 70
     0
 10
65.0
 20
-44.999878
 10
0.0
 20
-44.999878
  0
LWPOLYLINE
  5
263
100
AcDbEntity
  8
LAYER01
370
    35
390
0
  6
Continuous
 62
   134
100
AcDbPolyline
 90
        2
 70
     0
 10
0.0
 20
-44.999878
 10
0.0
 20
-5.499878
  0
LWPOLYLINE
  5
264
100
AcDbEntity
  8
LAYER01
370
    35
390
0
  6
Continuous
 62
   134
100
AcDbPolyline
 90
        2
 70
     0
 10
0.0
 20
-5.499878
 10
0.0
 20
5.500122
  0
LWPOLYLINE
  5
265
100
AcDbEntity
  8
LAYER01
370
    35
390
0
  6
Continuous
 62
   134
100
AcDbPolyline
 90
        2
 70
     0
 10
0.0
 20
5.500122
 10
0.0
 20
45.000122
  0
LWPOLYLINE
  5
266
100
AcDbEntity
  8
LAYER01
370
    35
390
0
  6
Continuous
 62
   134
100
AcDbPolyline
 90
        2
 70
     0
 10
4.0
 20
-44.999878
 10
4.0
 20
-5.499878
  0
LWPOLYLINE
  5
267
100
AcDbEntity
  8
LAYER01
370
    35
390
0
  6
Continuous
 62
   134
100
AcDbPolyline
 90
        2
 70
     0
 10
4.0
 20
-5.499878
 10
4.0
 20
5.500122
  0
LWPOLYLINE
  5
268
100
AcDbEntity
  8
LAYER01
370
    35
390
0
  6
Continuous
 62
   134
100
AcDbPolyline
 90
        2
 70
     0
 10
4.0
 20
5.500122
 10
4.0
 20
45.000122
  0
LWPOLYLINE
  5
269
100
AcDbEntity
  8
LAYER01
370
    35
390
0
  6
Continuous
 62
   134
100
AcDbPolyline
 90
        2
 70
     0
 10
2.0
 20
-44.999878
 10
2.0
 20
-5.499878
  0
LWPOLYLINE
  5
26A
100
AcDbEntity
  8
LAYER01
370
    35
390
0
  6
Continuous
 62
   134
100
AcDbPolyline
 90
        2
 70
     0
 10
2.0
 20
-5.499878
 10
2.0
 20
5.500122
  0
LWPOLYLINE
  5
26B
100
AcDbEntity
  8
LAYER01
370
    35
390
0
  6
Continuous
 62
   134
100
AcDbPolyline
 90
        2
 70
     0
 10
2.0
 20
5.500122
 10
2.0
 20
45.000122
  0
LWPOLYLINE
  5
26C
100
AcDbEntity
  8
LAYER01
370
    25
390
0
  6
DASHDOT
 62
    92
100
AcDbPolyline
 90
        2
 70
     0
 10
115.0
 20
0.000122
 10
-1.0
 20
0.000122
  0
LWPOLYLINE
  5
26D
100
AcDbEntity
  8
LAYER01
370
    35
390
0
  6
Continuous
 62
   134
100
AcDbPolyline
 90
        2
 70
     0
 10
115.0
 20
-4.999878
 10
113.629883
 20
-4.999878
  0
LWPOLYLINE
  5
26E
100
AcDbEntity
  8
LAYER01
370
    35
390
0
  6
Continuous
 62
   134
100
AcDbPolyline
 90
        2
 70
     0
 10
113.629883
 20
-4.999878
 10
52.14209
 20
-4.999878
  0
CIRCLE
  5
26F
100
AcDbEntity
  8
LAYER01
370
    35
390
0
  6
Continuous
 62
   134
100
AcDbCircle
 10
105.0
 20
35.000122
 30
0.0
 40
2.549805
  0
CIRCLE
  5
270
100
AcDbEntity
  8
LAYER01
370
    35
390
0
  6
Continuous
 62
   134
100
AcDbCircle
 10
105.0
 20
-34.999878
 30
0.0
 40
2.549805
  0
LWPOLYLINE
  5
271
100
AcDbEntity
  8
LAYER01
370
    35
390
0
  6
Continuous
 62
   134
100
AcDbPolyline
 90
        2
 70
     0
 10
115.0
 20
5.000122
 10
113.629883
 20
5.000122
  0
LWPOLYLINE
  5
272
100
AcDbEntity
  8
LAYER01
370
    35
390
0
  6
Continuous
 62
   134
100
AcDbPolyline
 90
        2
 70
     0
 10
113.629883
 20
5.000122
 10
52.14209
 20
5.000122
  0
LWPOLYLINE
  5
273
100
AcDbEntity
  8
LAYER01
370
    35
390
0
  6
Continuous
 62
   134
100
AcDbPolyline
 90
        2
 70
     0
 10
102.5
 20
12.500122
 10
102.5
 20
25.500122
  0
LWPOLYLINE
  5
274
100
AcDbEntity
  8
LAYER01
370
    13
390
0
  6
Continuous
 62
   213
100
AcDbPolyline
 90
        2
 70
     0
 10
102.5
 20
12.500122
 42
1.0
 10
107.5
 20
12.500122
  0
LWPOLYLINE
  5
275
100
AcDbEntity
  8
LAYER01
370
    35
390
0
  6
Continuous
 62
   134
100
AcDbPolyline
 90
        2
 70
     0
 10
107.5
 20
12.500122
 10
107.5
 20
25.500122
  0
LWPOLYLINE
  5
276
100
AcDbEntity
  8
LAYER01
370
    13
390
0
  6
Continuous
 62
   213
100
AcDbPolyline
 90
        2
 70
     0
 10
107.5
 20
25.500122
 42
1.0
 10
102.5
 20
25.500122
  0
LWPOLYLINE
  5
277
100
AcDbEntity
  8
LAYER01
370
    35
390
0
  6
Continuous
 62
   134
100
AcDbPolyline
 90
        2
 70
     0
 10
113.629883
 20
-4.999878
 10
113.629883
 20
5.000122
  0
LWPOLYLINE
  5
278
100
AcDbEntity
  8
LAYER01
370
    25
390
0
  6
Continuous
 62
    92
100
AcDbPolyline
 90
        2
 70
     0
 10
103.715332
 20
-4.999878
 10
103.715332
 20
5.000122
  0
LWPOLYLINE
  5
279
100
AcDbEntity
  8
LAYER01
370
    25
390
0
  6
Continuous
 62
    92
100
AcDbPolyline
 90
        2
 70
     0
 10
56.291992
 20
-4.999878
 10
56.291992
 20
5.000122
  0
LWPOLYLINE
  5
27A
100
AcDbEntity
  8
LAYER01
370
    35
390
0
  6
Continuous
 62
   134
100
AcDbPolyline
 90
        2
 70
     0
 10
52.14209
 20
-3.813599
 10
52.14209
 20
3.813599
  0
LWPOLYLINE
  5
27B
100
AcDbEntity
  8
LAYER01
370
    35
390
0
  6
Continuous
 62
   134
100
AcDbPolyline
 90
        2
 70
     0
 10
102.5
 20
-12.499878
 10
102.5
 20
-25.499878
  0
LWPOLYLINE
  5
27C
100
AcDbEntity
  8
LAYER01
370
    13
390
0
  6
Continuous
 62
   213
100
AcDbPolyline
 90
        2
 70
     0
 10
107.5
 20
-12.499878
 42
1.0
 10
102.5
 20
-12.499878
  0
LWPOLYLINE
  5
27D
100
AcDbEntity
  8
LAYER01
370
    35
390
0
  6
Continuous
 62
   134
100
AcDbPolyline
 90
        2
 70
     0
 10
107.5
 20
-12.499878
 10
107.5
 20
-25.499878
  0
LWPOLYLINE
  5
27E
100
AcDbEntity
  8
LAYER01
370
    13
390
0
  6
Continuous
 62
   213
100
AcDbPolyline
 90
        2
 70
     0
 10
102.5
 20
-25.499878
 42
1.0
 10
107.5
 20
-25.499878
  0
LWPOLYLINE
  5
27F
100
AcDbEntity
  8
LAYER01
370
    18
390
0
  6
DASHED
 62
     7
100
AcDbPolyline
 90
        2
 70
     0
 10
0.0
 20
5.500122
 10
4.0
 20
5.500122
  0
LWPOLYLINE
  5
280
100
AcDbEntity
  8
LAYER01
370
    18
390
0
  6
DASHED
 62
     7
100
AcDbPolyline
 90
        2
 70
     0
 10
0.0
 20
-5.499878
 10
4.0
 20
-5.499878
  0
INSERT
  5
29E
100
AcDbEntity
  8
LAYER01
390
0
100
AcDbBlockReference
  2
HATCH--I_U_79
 10
0.0
 20
0.0
 30
0.0
  0
LWPOLYLINE
  5
29F
100
AcDbEntity
  8
LAYER01
370
    35
390
0
  6
Continuous
 62
   134
100
AcDbPolyline
 90
        4
 70
     1
 10
89.341797
 20
-36.631714
 10
89.341797
 20
-31.131714
 10
83.841797
 20
-31.131714
 10
83.841797
 20
-36.631714
  0
LWPOLYLINE
  5
2A0
102
{ACAD_REACTORS
330
2A1
102
}
100
AcDbEntity
  8
HATCH_REACTORS
390
0
100
AcDbPolyline
 90
        4
 70
     1
 10
85.041992
 20
-34.981812
 10
84.741699
 20
-35.28186
 10
84.741699
 20
-31.131714
 10
85.041992
 20
-31.131714
  0
HATCH
  5
2A1
100
AcDbEntity
  8
LAYER01
370
     5
390
0
  6
Continuous
 62
     7
100
AcDbHatch
 10
0.0
 20
0.0
 30
0.0
210
0.0
220
0.0
230
1.0
  2
_L-O---1
 70
     1
 71
     1
 91
        1
 92
        2
 72
     0
 73
     1
 93
        4
 10
85.041992187500199
 20
-34.9818115234375
 10
84.741699218750199
 20
-35.2818603515625
 10
84.741699218750199
 20
-31.131713867187496
 10
85.041992187500199
 20
-31.131713867187496
 97
        1
330
2A0
 75
     0
 76
     0
 98
        0
  0
LWPOLYLINE
  5
2A2
102
{ACAD_REACTORS
330
2A3
102
}
100
AcDbEntity
  8
HATCH_REACTORS
390
0
100
AcDbPolyline
 90
        4
 70
     1
 10
85.39209
 20
-34.981812
 10
85.691895
 20
-35.28186
 10
84.741699
 20
-35.28186
 10
85.041992
 20
-34.981812
  0
HATCH
  5
2A3
100
AcDbEntity
  8
LAYER01
370
     5
390
0
  6
Continuous
 62
     7
100
AcDbHatch
 10
0.0
 20
0.0
 30
0.0
210
0.0
220
0.0
230
1.0
  2
_L-O---1
 70
     1
 71
     1
 91
        1
 92
        2
 72
     0
 73
     1
 93
        4
 10
85.392089843750199
 20
-34.9818115234375
 10
85.691894531250199
 20
-35.2818603515625
 10
84.741699218750199
 20
-35.2818603515625
 10
85.041992187500199
 20
-34.9818115234375
 97
        1
330
2A2
 75
     0
 76
     0
 98
        0
  0
LWPOLYLINE
  5
2A4
102
{ACAD_REACTORS
330
2A5
102
}
100
AcDbEntity
  8
HATCH_REACTORS
390
0
100
AcDbPolyline
 90
        4
 70
     1
 10
85.39209
 20
-31.131714
 10
85.691895
 20
-31.131714
 10
85.691895
 20
-35.28186
 10
85.39209
 20
-34.981812
  0
HATCH
  5
2A5
100
AcDbEntity
  8
LAYER01
370
     5
390
0
  6
Continuous
 62
     7
100
AcDbHatch
 10
0.0
 20
0.0
 30
0.0
210
0.0
220
0.0
230
1.0
  2
_L-O---1
 70
     1
 71
     1
 91
        1
 92
        2
 72
     0
 73
     1
 93
        4
 10
85.392089843750199
 20
-31.131713867187496
 10
85.691894531250199
 20
-31.131713867187496
 10
85.691894531250199
 20
-35.2818603515625
 10
85.392089843750199
 20
-34.9818115234375
 97
        1
330
2A4
 75
     0
 76
     0
 98
        0
  0
LWPOLYLINE
  5
2A6
102
{ACAD_REACTORS
330
2A7
102
}
100
AcDbEntity
  8
HATCH_REACTORS
390
0
100
AcDbPolyline
 90
        4
 70
     1
 10
86.041992
 20
-35.481812
 10
86.341797
 20
-35.78186
 10
83.841797
 20
-35.78186
 10
83.841797
 20
-35.481812
  0
HATCH
  5
2A7
100
AcDbEntity
  8
LAYER01
370
     5
390
0
  6
Continuous
 62
     7
100
AcDbHatch
 10
0.0
 20
0.0
 30
0.0
210
0.0
220
0.0
230
1.0
  2
_L-O---1
 70
     1
 71
     1
 91
        1
 92
        2
 72
     0
 73
     1
 93
        4
 10
86.041992187500199
 20
-35.4818115234375
 10
86.341796875000199
 20
-35.7818603515625
 10
83.841796875000199
 20
-35.7818603515625
 10
83.841796875000199
 20
-35.4818115234375
 97
        1
330
2A6
 75
     0
 76
     0
 98
        0
  0
LWPOLYLINE
  5
2A8
102
{ACAD_REACTORS
330
2A9
102
}
100
AcDbEntity
  8
HATCH_REACTORS
390
0
100
AcDbPolyline
 90
        4
 70
     1
 10
86.041992
 20
-31.131714
 10
86.341797
 20
-31.131714
 10
86.341797
 20
-35.78186
 10
86.041992
 20
-35.481812
  0
HATCH
  5
2A9
100
AcDbEntity
  8
LAYER01
370
     5
390
0
  6
Continuous
 62
     7
100
AcDbHatch
 10
0.0
 20
0.0
 30
0.0
210
0.0
220
0.0
230
1.0
  2
_L-O---1
 70
     1
 71
     1
 91
        1
 92
        2
 72
     0
 73
     1
 93
        4
 10
86.041992187500199
 20
-31.131713867187496
 10
86.341796875000199
 20
-31.131713867187496
 10
86.341796875000199
 20
-35.7818603515625
 10
86.041992187500199
 20
-35.4818115234375
 97
        1
330
2A8
 75
     0
 76
     0
 98
        0
  0
LWPOLYLINE
  5
2AA
102
{ACAD_REACTORS
330
2AB
102
}
100
AcDbEntity
  8
HATCH_REACTORS
390
0
100
AcDbPolyline
 90
        4
 70
     1
 10
88.14209
 20
-32.78186
 10
88.441895
 20
-32.481812
 10
88.441895
 20
-36.631714
 10
88.14209
 20
-36.631714
  0
HATCH
  5
2AB
100
AcDbEntity
  8
LAYER01
370
     5
390
0
  6
Continuous
 62
     7
100
AcDbHatch
 10
0.0
 20
0.0
 30
0.0
210
0.0
220
0.0
230
1.0
  2
_L-O---1
 70
     1
 71
     1
 91
        1
 92
        2
 72
     0
 73
     1
 93
        4
 10
88.142089843750199
 20
-32.7818603515625
 10
88.441894531250199
 20
-32.4818115234375
 10
88.441894531250199
 20
-36.6317138671875
 10
88.142089843750199
 20
-36.6317138671875
 97
        1
330
2AA
 75
     0
 76
     0
 98
        0
  0
LWPOLYLINE
  5
2AC
102
{ACAD_REACTORS
330
2AD
102
}
100
AcDbEntity
  8
HATCH_REACTORS
390
0
100
AcDbPolyline
 90
        4
 70
     1
 10
87.791992
 20
-32.78186
 10
87.491699
 20
-32.481812
 10
88.441895
 20
-32.481812
 10
88.14209
 20
-32.78186
  0
HATCH
  5
2AD
100
AcDbEntity
  8
LAYER01
370
     5
390
0
  6
Continuous
 62
     7
100
AcDbHatch
 10
0.0
 20
0.0
 30
0.0
210
0.0
220
0.0
230
1.0
  2
_L-O---1
 70
     1
 71
     1
 91
        1
 92
        2
 72
     0
 73
     1
 93
        4
 10
87.791992187500199
 20
-32.7818603515625
 10
87.491699218750199
 20
-32.4818115234375
 10
88.441894531250199
 20
-32.4818115234375
 10
88.142089843750199
 20
-32.7818603515625
 97
        1
330
2AC
 75
     0
 76
     0
 98
        0
  0
LWPOLYLINE
  5
2AE
102
{ACAD_REACTORS
330
2AF
102
}
100
AcDbEntity
  8
HATCH_REACTORS
390
0
100
AcDbPolyline
 90
        4
 70
     1
 10
87.791992
 20
-36.631714
 10
87.491699
 20
-36.631714
 10
87.491699
 20
-32.481812
 10
87.791992
 20
-32.78186
  0
HATCH
  5
2AF
100
AcDbEntity
  8
LAYER01
370
     5
390
0
  6
Continuous
 62
     7
100
AcDbHatch
 10
0.0
 20
0.0
 30
0.0
210
0.0
220
0.0
230
1.0
  2
_L-O---1
 70
     1
 71
     1
 91
        1
 92
        2
 72
     0
 73
     1
 93
        4
 10
87.791992187500199
 20
-36.6317138671875
 10
87.491699218750199
 20
-36.6317138671875
 10
87.491699218750199
 20
-32.4818115234375
 10
87.791992187500199
 20
-32.7818603515625
 97
        1
330
2AE
 75
     0
 76
     0
 98
        0
  0
LWPOLYLINE
  5
2B0
102
{ACAD_REACTORS
330
2B1
102
}
100
AcDbEntity
  8
HATCH_REACTORS
390
0
100
AcDbPolyline
 90
        4
 70
     1
 10
87.14209
 20
-32.28186
 10
86.841797
 20
-31.981812
 10
89.341797
 20
-31.981812
 10
89.341797
 20
-32.28186
  0
HATCH
  5
2B1
100
AcDbEntity
  8
LAYER01
370
     5
390
0
  6
Continuous
 62
     7
100
AcDbHatch
 10
0.0
 20
0.0
 30
0.0
210
0.0
220
0.0
230
1.0
  2
_L-O---1
 70
     1
 71
     1
 91
        1
 92
        2
 72
     0
 73
     1
 93
        4
 10
87.142089843750199
 20
-32.2818603515625
 10
86.841796875000199
 20
-31.981811523437496
 10
89.341796875000199
 20
-31.981811523437496
 10
89.341796875000199
 20
-32.2818603515625
 97
        1
330
2B0
 75
     0
 76
     0
 98
        0
  0
LWPOLYLINE
  5
2B2
102
{ACAD_REACTORS
330
2B3
102
}
100
AcDbEntity
  8
HATCH_REACTORS
390
0
100
AcDbPolyline
 90
        4
 70
     1
 10
87.14209
 20
-36.631714
 10
86.841797
 20
-36.631714
 10
86.841797
 20
-31.981812
 10
87.14209
 20
-32.28186
  0
HATCH
  5
2B3
100
AcDbEntity
  8
LAYER01
370
     5
390
0
  6
Continuous
 62
     7
100
AcDbHatch
 10
0.0
 20
0.0
 30
0.0
210
0.0
220
0.0
230
1.0
  2
_L-O---1
 70
     1
 71
     1
 91
        1
 92
        2
 72
     0
 73
     1
 93
        4
 10
87.142089843750199
 20
-36.6317138671875
 10
86.841796875000199
 20
-36.6317138671875
 10
86.841796875000199
 20
-31.981811523437496
 10
87.142089843750199
 20
-32.2818603515625
 97
        1
330
2B2
 75
     0
 76
     0
 98
        0
  0
LWPOLYLINE
  5
2B4
100
AcDbEntity
  8
LAYER01
370
    25
390
0
  6
Continuous
 62
    92
100
AcDbPolyline
 90
        2
 70
     0
 10
60.0
 20
-44.999878
 10
60.0
 20
-4.999878
  0
LWPOLYLINE
  5
2B5
100
AcDbEntity
  8
LAYER01
370
    25
390
0
  6
Continuous
 62
    92
100
AcDbPolyline
 90
        2
 70
     0
 10
60.0
 20
5.000122
 10
60.0
 20
45.000122
  0
ENDBLK
  5
2B6
100
AcDbEntity
  8
0
390
0
100
AcDbBlockEnd
  0
BLOCK
  5
282
100
AcDbEntity
  8
0
390
0
100
AcDbBlockBegin
  2
HATCH--I_U_79
 70
     0
 10
0.0
 20
0.0
 30
0.0
  3
HATCH--I_U_79
  1

  0
LWPOLYLINE
  5
283
102
{ACAD_REACTORS
330
284
102
}
100
AcDbEntity
  8
HATCH_REACTORS
390
0
100
AcDbPolyline
 90
        4
 70
     1
 10
83.841797
 20
-35.631714
 10
83.841797
 20
-31.131714
 10
84.89209
 20
-31.131714
 10
84.89209
 20
-35.631714
  0
HATCH
  5
284
100
AcDbEntity
  8
LAYER01
370
     5
390
0
  6
Continuous
 62
     7
100
AcDbHatch
 10
0.0
 20
0.0
 30
0.0
210
0.0
220
0.0
230
1.0
  2
_L-O---1
 70
     1
 71
     1
 91
        1
 92
        2
 72
     0
 73
     1
 93
        4
 10
83.841796875000199
 20
-35.6317138671875
 10
83.841796875000199
 20
-31.131713867187496
 10
84.892089843750199
 20
-31.131713867187496
 10
84.892089843750199
 20
-35.6317138671875
 97
        1
330
283
 75
     0
 76
     0
 98
        0
  0
LWPOLYLINE
  5
285
102
{ACAD_REACTORS
330
286
102
}
100
AcDbEntity
  8
HATCH_REACTORS
390
0
100
AcDbPolyline
 90
        4
 70
     1
 10
83.841797
 20
-36.631714
 10
83.841797
 20
-35.631714
 10
84.89209
 20
-35.631714
 10
84.89209
 20
-36.631714
  0
HATCH
  5
286
100
AcDbEntity
  8
LAYER01
370
     5
390
0
  6
Continuous
 62
     7
100
AcDbHatch
 10
0.0
 20
0.0
 30
0.0
210
0.0
220
0.0
230
1.0
  2
_L-O---1
 70
     1
 71
     1
 91
        1
 92
        2
 72
     0
 73
     1
 93
        4
 10
83.841796875000199
 20
-36.6317138671875
 10
83.841796875000199
 20
-35.6317138671875
 10
84.892089843750199
 20
-35.6317138671875
 10
84.892089843750199
 20
-36.6317138671875
 97
        1
330
285
 75
     0
 76
     0
 98
        0
  0
LWPOLYLINE
  5
287
102
{ACAD_REACTORS
330
288
102
}
100
AcDbEntity
  8
HATCH_REACTORS
390
0
100
AcDbPolyline
 90
        4
 70
     1
 10
84.89209
 20
-35.631714
 10
84.89209
 20
-35.131714
 10
85.541992
 20
-35.131714
 10
85.541992
 20
-35.631714
  0
HATCH
  5
288
100
AcDbEntity
  8
LAYER01
370
     5
390
0
  6
Continuous
 62
     7
100
AcDbHatch
 10
0.0
 20
0.0
 30
0.0
210
0.0
220
0.0
230
1.0
  2
_L-O---1
 70
     1
 71
     1
 91
        1
 92
        2
 72
     0
 73
     1
 93
        4
 10
84.892089843750199
 20
-35.6317138671875
 10
84.892089843750199
 20
-35.1317138671875
 10
85.541992187500199
 20
-35.1317138671875
 10
85.541992187500199
 20
-35.6317138671875
 97
        1
330
287
 75
     0
 76
     0
 98
        0
  0
LWPOLYLINE
  5
289
102
{ACAD_REACTORS
330
28A
102
}
100
AcDbEntity
  8
HATCH_REACTORS
390
0
100
AcDbPolyline
 90
        4
 70
     1
 10
84.89209
 20
-36.631714
 10
84.89209
 20
-35.631714
 10
85.541992
 20
-35.631714
 10
85.541992
 20
-36.631714
  0
HATCH
  5
28A
100
AcDbEntity
  8
LAYER01
370
     5
390
0
  6
Continuous
 62
     7
100
AcDbHatch
 10
0.0
 20
0.0
 30
0.0
210
0.0
220
0.0
230
1.0
  2
_L-O---1
 70
     1
 71
     1
 91
        1
 92
        2
 72
     0
 73
     1
 93
        4
 10
84.892089843750199
 20
-36.6317138671875
 10
84.892089843750199
 20
-35.6317138671875
 10
85.541992187500199
 20
-35.6317138671875
 10
85.541992187500199
 20
-36.6317138671875
 97
        1
330
289
 75
     0
 76
     0
 98
        0
  0
LWPOLYLINE
  5
28B
102
{ACAD_REACTORS
330
28C
102
}
100
AcDbEntity
  8
HATCH_REACTORS
390
0
100
AcDbPolyline
 90
        4
 70
     1
 10
85.541992
 20
-35.631714
 10
85.541992
 20
-31.131714
 10
86.191895
 20
-31.131714
 10
86.191895
 20
-35.631714
  0
HATCH
  5
28C
100
AcDbEntity
  8
LAYER01
370
     5
390
0
  6
Continuous
 62
     7
100
AcDbHatch
 10
0.0
 20
0.0
 30
0.0
210
0.0
220
0.0
230
1.0
  2
_L-O---1
 70
     1
 71
     1
 91
        1
 92
        2
 72
     0
 73
     1
 93
        4
 10
85.541992187500199
 20
-35.6317138671875
 10
85.541992187500199
 20
-31.131713867187496
 10
86.191894531250199
 20
-31.131713867187496
 10
86.191894531250199
 20
-35.6317138671875
 97
        1
330
28B
 75
     0
 76
     0
 98
        0
  0
LWPOLYLINE
  5
28D
102
{ACAD_REACTORS
330
28E
102
}
100
AcDbEntity
  8
HATCH_REACTORS
390
0
100
AcDbPolyline
 90
        4
 70
     1
 10
85.541992
 20
-36.631714
 10
85.541992
 20
-35.631714
 10
86.191895
 20
-35.631714
 10
86.191895
 20
-36.631714
  0
HATCH
  5
28E
100
AcDbEntity
  8
LAYER01
370
     5
390
0
  6
Continuous
 62
     7
100
AcDbHatch
 10
0.0
 20
0.0
 30
0.0
210
0.0
220
0.0
230
1.0
  2
_L-O---1
 70
     1
 71
     1
 91
        1
 92
        2
 72
     0
 73
     1
 93
        4
 10
85.541992187500199
 20
-36.6317138671875
 10
85.541992187500199
 20
-35.6317138671875
 10
86.191894531250199
 20
-35.6317138671875
 10
86.191894531250199
 20
-36.6317138671875
 97
        1
330
28D
 75
     0
 76
     0
 98
        0
  0
LWPOLYLINE
  5
28F
102
{ACAD_REACTORS
330
290
102
}
100
AcDbEntity
  8
HATCH_REACTORS
390
0
100
AcDbPolyline
 90
        4
 70
     1
 10
86.191895
 20
-36.631714
 10
86.191895
 20
-31.131714
 10
86.991699
 20
-31.131714
 10
86.991699
 20
-36.631714
  0
HATCH
  5
290
100
AcDbEntity
  8
LAYER01
370
     5
390
0
  6
Continuous
 62
     7
100
AcDbHatch
 10
0.0
 20
0.0
 30
0.0
210
0.0
220
0.0
230
1.0
  2
_L-O---1
 70
     1
 71
     1
 91
        1
 92
        2
 72
     0
 73
     1
 93
        4
 10
86.191894531250199
 20
-36.6317138671875
 10
86.191894531250199
 20
-31.131713867187496
 10
86.991699218750199
 20
-31.131713867187496
 10
86.991699218750199
 20
-36.6317138671875
 97
        1
330
28F
 75
     0
 76
     0
 98
        0
  0
LWPOLYLINE
  5
291
102
{ACAD_REACTORS
330
292
102
}
100
AcDbEntity
  8
HATCH_REACTORS
390
0
100
AcDbPolyline
 90
        4
 70
     1
 10
86.991699
 20
-32.131714
 10
86.991699
 20
-31.131714
 10
87.64209
 20
-31.131714
 10
87.64209
 20
-32.131714
  0
HATCH
  5
292
100
AcDbEntity
  8
LAYER01
370
     5
390
0
  6
Continuous
 62
     7
100
AcDbHatch
 10
0.0
 20
0.0
 30
0.0
210
0.0
220
0.0
230
1.0
  2
_L-O---1
 70
     1
 71
     1
 91
        1
 92
        2
 72
     0
 73
     1
 93
        4
 10
86.991699218750199
 20
-32.1317138671875
 10
86.991699218750199
 20
-31.131713867187496
 10
87.642089843750199
 20
-31.131713867187496
 10
87.642089843750199
 20
-32.1317138671875
 97
        1
330
291
 75
     0
 76
     0
 98
        0
  0
LWPOLYLINE
  5
293
102
{ACAD_REACTORS
330
294
102
}
100
AcDbEntity
  8
HATCH_REACTORS
390
0
100
AcDbPolyline
 90
        4
 70
     1
 10
86.991699
 20
-36.631714
 10
86.991699
 20
-32.131714
 10
87.64209
 20
-32.131714
 10
87.64209
 20
-36.631714
  0
HATCH
  5
294
100
AcDbEntity
  8
LAYER01
370
     5
390
0
  6
Continuous
 62
     7
100
AcDbHatch
 10
0.0
 20
0.0
 30
0.0
210
0.0
220
0.0
230
1.0
  2
_L-O---1
 70
     1
 71
     1
 91
        1
 92
        2
 72
     0
 73
     1
 93
        4
 10
86.991699218750199
 20
-36.6317138671875
 10
86.991699218750199
 20
-32.1317138671875
 10
87.642089843750199
 20
-32.1317138671875
 10
87.642089843750199
 20
-36.6317138671875
 97
        1
330
293
 75
     0
 76
     0
 98
        0
  0
LWPOLYLINE
  5
295
102
{ACAD_REACTORS
330
296
102
}
100
AcDbEntity
  8
HATCH_REACTORS
390
0
100
AcDbPolyline
 90
        4
 70
     1
 10
87.64209
 20
-32.131714
 10
87.64209
 20
-31.131714
 10
88.291992
 20
-31.131714
 10
88.291992
 20
-32.131714
  0
HATCH
  5
296
100
AcDbEntity
  8
LAYER01
370
     5
390
0
  6
Continuous
 62
     7
100
AcDbHatch
 10
0.0
 20
0.0
 30
0.0
210
0.0
220
0.0
230
1.0
  2
_L-O---1
 70
     1
 71
     1
 91
        1
 92
        2
 72
     0
 73
     1
 93
        4
 10
87.642089843750199
 20
-32.1317138671875
 10
87.642089843750199
 20
-31.131713867187496
 10
88.291992187500199
 20
-31.131713867187496
 10
88.291992187500199
 20
-32.1317138671875
 97
        1
330
295
 75
     0
 76
     0
 98
        0
  0
LWPOLYLINE
  5
297
102
{ACAD_REACTORS
330
298
102
}
100
AcDbEntity
  8
HATCH_REACTORS
390
0
100
AcDbPolyline
 90
        4
 70
     1
 10
87.64209
 20
-32.631714
 10
87.64209
 20
-32.131714
 10
88.291992
 20
-32.131714
 10
88.291992
 20
-32.631714
  0
HATCH
  5
298
100
AcDbEntity
  8
LAYER01
370
     5
390
0
  6
Continuous
 62
     7
100
AcDbHatch
 10
0.0
 20
0.0
 30
0.0
210
0.0
220
0.0
230
1.0
  2
_L-O---1
 70
     1
 71
     1
 91
        1
 92
        2
 72
     0
 73
     1
 93
        4
 10
87.642089843750199
 20
-32.6317138671875
 10
87.642089843750199
 20
-32.1317138671875
 10
88.291992187500199
 20
-32.1317138671875
 10
88.291992187500199
 20
-32.6317138671875
 97
        1
330
297
 75
     0
 76
     0
 98
        0
  0
LWPOLYLINE
  5
299
102
{ACAD_REACTORS
330
29A
102
}
100
AcDbEntity
  8
HATCH_REACTORS
390
0
100
AcDbPolyline
 90
        4
 70
     1
 10
88.291992
 20
-32.131714
 10
88.291992
 20
-31.131714
 10
89.341797
 20
-31.131714
 10
89.341797
 20
-32.131714
  0
HATCH
  5
29A
100
AcDbEntity
  8
LAYER01
370
     5
390
0
  6
Continuous
 62
     7
100
AcDbHatch
 10
0.0
 20
0.0
 30
0.0
210
0.0
220
0.0
230
1.0
  2
_L-O---1
 70
     1
 71
     1
 91
        1
 92
        2
 72
     0
 73
     1
 93
        4
 10
88.291992187500199
 20
-32.1317138671875
 10
88.291992187500199
 20
-31.131713867187496
 10
89.341796875000199
 20
-31.131713867187496
 10
89.341796875000199
 20
-32.1317138671875
 97
        1
330
299
 75
     0
 76
     0
 98
        0
  0
LWPOLYLINE
  5
29B
102
{ACAD_REACTORS
330
29C
102
}
100
AcDbEntity
  8
HATCH_REACTORS
390
0
100
AcDbPolyline
 90
        4
 70
     1
 10
88.291992
 20
-36.631714
 10
88.291992
 20
-32.131714
 10
89.341797
 20
-32.131714
 10
89.341797
 20
-36.631714
  0
HATCH
  5
29C
100
AcDbEntity
  8
LAYER01
370
     5
390
0
  6
Continuous
 62
     7
100
AcDbHatch
 10
0.0
 20
0.0
 30
0.0
210
0.0
220
0.0
230
1.0
  2
_L-O---1
 70
     1
 71
     1
 91
        1
 92
        2
 72
     0
 73
     1
 93
        4
 10
88.291992187500199
 20
-36.6317138671875
 10
88.291992187500199
 20
-32.1317138671875
 10
89.341796875000199
 20
-32.1317138671875
 10
89.341796875000199
 20
-36.6317138671875
 97
        1
330
29B
 75
     0
 76
     0
 98
        0
  0
ENDBLK
  5
29D
100
AcDbEntity
  8
0
390
0
100
AcDbBlockEnd
  0
BLOCK
  5
2B9
100
AcDbEntity
  8
0
390
0
100
AcDbBlockBegin
  2
N7976_TV_U_79
 70
     0
 10
0.0
 20
0.0
 30
0.0
  3
N7976_TV_U_79
  1

  0
LWPOLYLINE
  5
2BA
100
AcDbEntity
  8
LAYER01
370
    35
390
0
  6
Continuous
 62
   134
100
AcDbPolyline
 90
        6
 70
     1
 10
-2.30957
 20
-3.999878
 10
-4.618652
 20
0.000122
 10
-2.30957
 20
4.000122
 10
2.30957
 20
4.000122
 10
4.618652
 20
0.000122
 10
2.30957
 20
-3.999878
  0
CIRCLE
  5
2BB
100
AcDbEntity
  8
LAYER01
370
    35
390
0
  6
Continuous
 62
   134
100
AcDbCircle
 10
0.0
 20
0.000122
 30
0.0
 40
5.0
  0
ENDBLK
  5
2BC
100
AcDbEntity
  8
0
390
0
100
AcDbBlockEnd
  0
BLOCK
  5
2C0
100
AcDbEntity
  8
0
390
0
100
AcDbBlockBegin
  2
N7976_TV_U_792
 70
     0
 10
0.0
 20
0.0
 30
0.0
  3
N7976_TV_U_792
  1

  0
LWPOLYLINE
  5
2C1
100
AcDbEntity
  8
LAYER01
370
    35
390
0
  6
Continuous
 62
   134
100
AcDbPolyline
 90
        6
 70
     1
 10
-2.30957
 20
-3.999878
 10
-4.618652
 20
0.000122
 10
-2.30957
 20
4.000122
 10
2.30957
 20
4.000122
 10
4.618652
 20
0.000122
 10
2.30957
 20
-3.999878
  0
CIRCLE
  5
2C2
100
AcDbEntity
  8
LAYER01
370
    35
390
0
  6
Continuous
 62
   134
100
AcDbCircle
 10
0.0
 20
0.000122
 30
0.0
 40
5.0
  0
ENDBLK
  5
2C3
100
AcDbEntity
  8
0
390
0
100
AcDbBlockEnd
  0
BLOCK
  5
2C6
100
AcDbEntity
  8
0
390
0
100
AcDbBlockBegin
  2
_D---ABU_U_79
 70
     0
 10
0.0
 20
0.0
 30
0.0
  3
_D---ABU_U_79
  1

  0
LWPOLYLINE
  5
2C7
100
AcDbEntity
  8
LAYER01
370
    18
390
0
  6
Continuous
 62
     7
100
AcDbPolyline
 90
        2
 70
     0
 10
1326.728027
 20
946.584717
 10
1326.728027
 20
936.364746
  0
LWPOLYLINE
  5
2C8
100
AcDbEntity
  8
LAYER01
370
    18
390
0
  6
Continuous
 62
     7
100
AcDbPolyline
 90
        2
 70
     0
 10
1296.728027
 20
946.584717
 10
1296.728027
 20
936.364746
  0
LWPOLYLINE
  5
2C9
100
AcDbEntity
  8
LAYER01
370
    18
390
0
  6
Continuous
 62
     7
100
AcDbPolyline
 90
        2
 70
     0
 10
1321.728027
 20
938.364746
 10
1301.728027
 20
938.364746
  0
LWPOLYLINE
  5
2CA
102
{ACAD_REACTORS
330
2CB
102
}
100
AcDbEntity
  8
HATCH_REACTORS
390
0
100
AcDbPolyline
 90
        3
 70
     1
 10
1321.728027
 20
937.531494
 10
1321.728027
 20
939.198242
 10
1326.728027
 20
938.364746
  0
HATCH
  5
2CB
100
AcDbEntity
  8
LAYER01
370
     5
390
0
  6
Continuous
 62
     7
100
AcDbHatch
 10
0.0
 20
0.0
 30
0.0
210
0.0
220
0.0
230
1.0
  2
_L-O---1
 70
     1
 71
     1
 91
        1
 92
        2
 72
     0
 73
     1
 93
        3
 10
1321.72802734375
 20
937.531494140625
 10
1321.72802734375
 20
939.1982421875
 10
1326.72802734375
 20
938.36474609375
 97
        1
330
2CA
 75
     0
 76
     0
 98
        0
  0
LWPOLYLINE
  5
2CC
102
{ACAD_REACTORS
330
2CD
102
}
100
AcDbEntity
  8
HATCH_REACTORS
390
0
100
AcDbPolyline
 90
        3
 70
     1
 10
1301.728027
 20
937.531494
 10
1296.728027
 20
938.364746
 10
1301.728027
 20
939.198242
  0
HATCH
  5
2CD
100
AcDbEntity
  8
LAYER01
370
     5
390
0
  6
Continuous
 62
     7
100
AcDbHatch
 10
0.0
 20
0.0
 30
0.0
210
0.0
220
0.0
230
1.0
  2
_L-O---1
 70
     1
 71
     1
 91
        1
 92
        2
 72
     0
 73
     1
 93
        3
 10
1301.72802734375
 20
937.531494140625
 10
1296.72802734375
 20
938.36474609375
 10
1301.72802734375
 20
939.1982421875
 97
        1
330
2CC
 75
     0
 76
     0
 98
        0
  0
MTEXT
  5
2CE
100
AcDbEntity
  8
LAYER01
390
0
  6
Continuous
 62
     7
100
AcDbMText
 10
1307.909668
 20
944.864868
 30
0.0
 40
1.8
 41
0.0
 71
     7
 72
     1
  1
{\fArial|b0|i0|c12|p0;_       }
 73
     1
 44
1.333333
  0
MTEXT
  5
2CF
100
AcDbEntity
  8
LAYER01
390
0
  6
Continuous
 62
     7
100
AcDbMText
 10
1307.719238
 20
944.364868
 30
0.0
 40
2.34
 41
0.0
 71
     7
 72
     1
  1
{\fArial|b0|i0|c12|p0;>28*}
 73
     1
 44
1.333333
  0
ENDBLK
  5
2D0
100
AcDbEntity
  8
0
390
0
100
AcDbBlockEnd
  0
BLOCK
  5
447
100
AcDbEntity
  8
0
390
0
100
AcDbBlockBegin
  2
_D---ACV_U_79
 70
     0
 10
0.0
 20
0.0
 30
0.0
  3
_D---ACV_U_79
  1

  0
LWPOLYLINE
  5
448
100
AcDbEntity
  8
LAYER01
370
    18
390
0
  6
Continuous
 62
     7
100
AcDbPolyline
 90
        2
 70
     0
 10
1288.728027
 20
896.049316
 10
1275.115234
 20
896.049316
  0
LWPOLYLINE
  5
449
100
AcDbEntity
  8
LAYER01
370
    18
390
0
  6
Continuous
 62
     7
100
AcDbPolyline
 90
        2
 70
     0
 10
1288.728027
 20
930.692139
 10
1275.115234
 20
930.692139
  0
LWPOLYLINE
  5
44A
100
AcDbEntity
  8
LAYER01
370
    18
390
0
  6
Continuous
 62
     7
100
AcDbPolyline
 90
        2
 70
     0
 10
1277.115234
 20
901.049316
 10
1277.115234
 20
925.692139
  0
LWPOLYLINE
  5
44B
102
{ACAD_REACTORS
330
44C
102
}
100
AcDbEntity
  8
HATCH_REACTORS
390
0
100
AcDbPolyline
 90
        3
 70
     1
 10
1277.948242
 20
901.049316
 10
1277.115234
 20
896.049316
 10
1276.281738
 20
901.049316
  0
HATCH
  5
44C
100
AcDbEntity
  8
LAYER01
370
     5
390
0
  6
Continuous
 62
     7
100
AcDbHatch
 10
0.0
 20
0.0
 30
0.0
210
0.0
220
0.0
230
1.0
  2
_L-O---1
 70
     1
 71
     1
 91
        1
 92
        2
 72
     0
 73
     1
 93
        3
 10
1277.9482421875
 20
901.04931640625
 10
1277.115234375
 20
896.04931640625
 10
1276.28173828125
 20
901.04931640625
 97
        1
330
44B
 75
     0
 76
     0
 98
        0
  0
LWPOLYLINE
  5
44D
102
{ACAD_REACTORS
330
44E
102
}
100
AcDbEntity
  8
HATCH_REACTORS
390
0
100
AcDbPolyline
 90
        3
 70
     1
 10
1277.948242
 20
925.692139
 10
1276.281738
 20
925.692139
 10
1277.115234
 20
930.692139
  0
HATCH
  5
44E
100
AcDbEntity
  8
LAYER01
370
     5
390
0
  6
Continuous
 62
     7
100
AcDbHatch
 10
0.0
 20
0.0
 30
0.0
210
0.0
220
0.0
230
1.0
  2
_L-O---1
 70
     1
 71
     1
 91
        1
 92
        2
 72
     0
 73
     1
 93
        3
 10
1277.9482421875
 20
925.692138671875
 10
1276.28173828125
 20
925.692138671875
 10
1277.115234375
 20
930.692138671875
 97
        1
330
44D
 75
     0
 76
     0
 98
        0
  0
INSERT
  5
453
100
AcDbEntity
  8
LAYER01
390
0
100
AcDbBlockReference
  2
IT5E11___U_79
 10
1272.115234
 20
913.370728
 30
0.0
 50
90.0
  0
ENDBLK
  5
454
100
AcDbEntity
  8
0
390
0
100
AcDbBlockEnd
  0
BLOCK
  5
450
100
AcDbEntity
  8
0
390
0
100
AcDbBlockBegin
  2
IT5E11___U_79
 70
     0
 10
0.0
 20
0.0
 30
0.0
  3
IT5E11___U_79
  1

  0
MTEXT
  5
451
100
AcDbEntity
  8
LAYER01
390
0
  6
Continuous
 62
     7
100
AcDbMText
 10
-6.104492
 20
0.0
 30
0.0
 40
3.24
 41
0.0
 71
     7
 72
     1
  1
{\fArial|b0|i0|c12|p0;50mm}
 11
1.0
 21
0.0
 31
0.0
 73
     1
 44
1.333333
  0
ENDBLK
  5
452
100
AcDbEntity
  8
0
390
0
100
AcDbBlockEnd
  0
BLOCK
  5
458
100
AcDbEntity
  8
0
390
0
100
AcDbBlockBegin
  2
T-ROCKP__U_M_79
 70
     0
 10
0.0
 20
0.0
 30
0.0
  3
T-ROCKP__U_M_79
  1

  0
MTEXT
  5
459
100
AcDbEntity
  8
LAYER01
390
0
  6
Continuous
 62
     7
100
AcDbMText
 10
53.455078
 20
-1.666626
 30
0.0
 40
4.5
 41
0.0
 71
     7
 72
     1
  1
{\fArial|b0|i0|c12|p0;ROCKPANEL 8MM}
 11
-1.0
 21
0.0
 31
0.0
 73
     1
 44
1.333333
  0
ENDBLK
  5
45A
100
AcDbEntity
  8
0
390
0
100
AcDbBlockEnd
  0
BLOCK
  5
45D
100
AcDbEntity
  8
0
390
0
100
AcDbBlockBegin
  2
T-VENPRF_U_M_79
 70
     0
 10
0.0
 20
0.0
 30
0.0
  3
T-VENPRF_U_M_79
  1

  0
MTEXT
  5
45E
100
AcDbEntity
  8
LAYER127
390
0
  6
Continuous
 62
     7
100
AcDbMText
 10
62.037109
 20
-1.666626
 30
0.0
 40
4.5
 41
0.0
 71
     7
 72
     1
  1
{\fArial|b0|i0|c12|p0;VENTILATIEPROFIEL}
 11
-1.0
 21
0.0
 31
0.0
 73
     1
 44
1.333333
  0
ENDBLK
  5
460
100
AcDbEntity
  8
0
390
0
100
AcDbBlockEnd
  0
BLOCK
  5
463
100
AcDbEntity
  8
0
390
0
100
AcDbBlockBegin
  2
T-ACHTER_U_79
 70
     0
 10
0.0
 20
0.0
 30
0.0
  3
T-ACHTER_U_79
  1

  0
MTEXT
  5
464
100
AcDbEntity
  8
LAYER127
390
0
  6
Continuous
 62
     7
100
AcDbMText
 10
0.0
 20
11.666626
 30
0.0
 40
4.5
 41
0.0
 71
     7
 72
     1
  1
{\fArial|b0|i0|c12|p0;* BIJ OPEN GEVELSYSTEMEN OP ALUMINIUM ACHTERCONSTRUCTIE}
 73
     1
 44
1.333333
  0
MTEXT
  5
465
100
AcDbEntity
  8
LAYER127
390
0
  6
Continuous
 62
     7
100
AcDbMText
 10
0.0
 20
1.666626
 30
0.0
 40
4.5
 41
0.0
 71
     7
 72
     1
  1
{\fArial|b0|i0|c12|p0;  ADVISEERT ROCKPANEL EEN SPOUWDIEPTE VAN TENMINSTE  60 MM}
 73
     1
 44
1.333333
  0
ENDBLK
  5
466
100
AcDbEntity
  8
0
390
0
100
AcDbBlockEnd
  0
BLOCK
  5
469
100
AcDbEntity
  8
0
390
0
100
AcDbBlockBegin
  2
T-VENTIL_U_79
 70
     0
 10
0.0
 20
0.0
 30
0.0
  3
T-VENTIL_U_79
  1

  0
MTEXT
  5
46A
100
AcDbEntity
  8
LAYER127
390
0
  6
Continuous
 62
     7
100
AcDbMText
 10
0.0
 20
1.666504
 30
0.0
 40
4.5
 41
0.0
 71
     7
 72
     1
  1
{\fArial|b0|i0|c12|p0;VENTILATIE}
 73
     1
 44
1.333333
  0
ENDBLK
  5
46B
100
AcDbEntity
  8
0
390
0
100
AcDbBlockEnd
  0
BLOCK
  5
482
100
AcDbEntity
  8
0
390
0
100
AcDbBlockBegin
  2
KLPL2_A4_U_0
 70
     0
 10
0.0
 20
0.0
 30
0.0
  3
KLPL2_A4_U_0
  1

  0
LWPOLYLINE
  5
483
100
AcDbEntity
  8
LAYER98
370
    18
390
0
  6
Continuous
 62
     7
100
AcDbPolyline
 90
        4
 70
     1
 10
-180.0
 20
190.0
 10
97.0
 20
190.0
 10
97.0
 20
0.0
 10
-180.0
 20
0.0
  0
LWPOLYLINE
  5
484
100
AcDbEntity
  8
LAYER98
370
    25
390
0
  6
DOT
 62
     8
100
AcDbPolyline
 90
        2
 70
     0
 10
107.0
 20
200.0
 10
105.366943
 20
198.845459
  0
LWPOLYLINE
  5
485
100
AcDbEntity
  8
LAYER98
370
    25
390
0
  6
DOT
 62
     8
100
AcDbPolyline
 90
        2
 70
     0
 10
-190.0
 20
200.0
 10
-188.366943
 20
198.845215
  0
LWPOLYLINE
  5
486
100
AcDbEntity
  8
LAYER98
370
    25
390
0
  6
DOT
 62
     8
100
AcDbPolyline
 90
        2
 70
     0
 10
-190.0
 20
-10.0
 10
-188.366943
 20
-8.845215
  0
LWPOLYLINE
  5
487
100
AcDbEntity
  8
LAYER98
370
    25
390
0
  6
DOT
 62
     8
100
AcDbPolyline
 90
        2
 70
     0
 10
107.0
 20
-10.0
 10
105.366943
 20
-8.845459
  0
LWPOLYLINE
  5
488
100
AcDbEntity
  8
LAYER98
370
    35
390
0
  6
Continuous
 62
   134
100
AcDbPolyline
 90
        2
 70
     0
 10
-149.800049
 20
190.0
 10
-149.800049
 20
0.0
  0
MTEXT
  5
489
100
AcDbEntity
  8
LAYER98
390
0
  6
Continuous
 62
     7
100
AcDbMText
 10
-156.866699
 20
177.800049
 30
0.0
 40
4.5
 41
0.0
 71
     7
 72
     1
  1
{\fArial|b0|i0|c12|p0;DETAIL 2-551}
 11
0.0
 21
-1.0
 31
0.0
 73
     1
 44
1.333333
  0
MTEXT
  5
48A
100
AcDbEntity
  8
LAYER98
390
0
  6
Continuous
 62
     7
100
AcDbMText
 10
-164.416718
 20
177.800049
 30
0.0
 40
3.15
 41
0.0
 71
     7
 72
     1
  1
{\fArial|b0|i0|c12|p0;gevelaansluiting met stucwerk}
 11
0.0
 21
-1.0
 31
0.0
 73
     1
 44
1.333333
  0
MTEXT
  5
48B
100
AcDbEntity
  8
LAYER98
390
0
  6
Continuous
 62
     7
100
AcDbMText
 10
-169.966736
 20
177.800049
 30
0.0
 40
3.15
 41
0.0
 71
     7
 72
     1
  1
{\fArial|b0|i0|c12|p0;bij aluminium draagconstructie}
 11
0.0
 21
-1.0
 31
0.0
 73
     1
 44
1.333333
  0
ENDBLK
  5
48C
100
AcDbEntity
  8
0
390
0
100
AcDbBlockEnd
  0
ENDSEC
  0
SECTION
  2
ENTITIES
  0
IMAGE
  5
48E
100
AcDbEntity
  8
LAYER98
390
0
 92
      140
310
0000000000000000840000000600000005000000000000009AB96F4000000080A91076400000000000000000000000009AB96F40894CC3F6FFFF7B4000000000000000000000000000C07140894CC3F6FFFF7B4000000000000000000000000000C0714000000080A91076400000000000000000000000009AB96F40000000
310
80A91076400000000000000000
100
AcDbRasterImage
 90
        0
 10
253.800049
 20
353.041382
 30
0.0
 11
0.077835
 21
0.0
 31
0.0
 12
0.0
 22
0.077835
 32
0.0
 13
388.0
 23
1220.0
340
492
 70
     7
280
     0
281
    50
282
    50
283
     0
360
491
 71
     1
 91
        2
 14
-0.5
 24
-0.5
 14
387.5
 24
1219.5
  0
VIEWPORT
  5
28
100
AcDbEntity
 67
     1
  8
0
390
0
100
AcDbViewport
 10
0.0
 20
0.0
 30
0.0
 40
1.0
 41
1.0
 68
     0
 69
     1
 12
146.242188
 22
144.0
 13
0.0
 23
0.0
 14
0.5
 24
0.5
 15
0.5
 25
0.5
 16
0.0
 26
0.0
 36
1.0
 17
0.0
 27
0.0
 37
0.0
 42
50.0
 43
0.0
 44
0.0
 45
1065.999961
 50
0.0
 51
0.0
 72
   100
 90
    32800
340
0
  1

281
     0
 71
     0
 74
     1
110
0.0
120
0.0
130
0.0
111
1.0
121
0.0
131
0.0
112
0.0
122
1.0
132
0.0
345
0
346
0
 79
     0
146
0.0
  0
LWPOLYLINE
  5
47F
100
AcDbEntity
 67
     1
  8
0
390
0
100
AcDbPolyline
 90
        4
 70
     1
 10
7.0
 20
258.0
 10
7.0
 20
448.0
 10
253.800049
 20
448.0
 10
253.800049
 20
258.0
  0
VIEWPORT
  5
480
100
AcDbEntity
 67
     1
  8
LAYER98
390
0
100
AcDbViewport
 10
130.400024
 20
353.0
 30
0.0
 40
246.800049
 41
190.0
 68
     2
 69
     2
 12
0.0
 22
0.0
 13
0.0
 23
0.0
 14
0.5
 24
0.5
 15
0.5
 25
0.5
 16
0.0
 26
0.0
 36
1.0
 17
-1589.95874
 27
-5570.183105
 37
0.0
 42
50.0
 43
0.0
 44
0.0
 45
380.0
 50
0.0
 51
0.0
 72
   100
 90
    65536
340
47F
  1

281
     0
 71
     0
 74
     1
110
0.0
120
0.0
130
0.0
111
1.0
121
0.0
131
0.0
112
0.0
122
1.0
132
0.0
345
0
346
0
 79
     0
146
0.0
  0
INSERT
  5
48D
100
AcDbEntity
 67
     1
  8
LAYER98
390
0
100
AcDbBlockReference
  2
KLPL2_A4_U_0
 10
104.0
 20
448.0
 30
0.0
 50
180.0
  0
INSERT
  5
47E
100
AcDbEntity
  8
LAYER98
390
0
100
AcDbBlockReference
  2
DET-DUI2_79
 10
0.0
 20
0.0
 30
0.0
  0
ENDSEC
  0
SECTION
  2
OBJECTS
  0
DICTIONARY
  5
19
100
AcDbDictionary
280
     0
281
     1
  3
ACAD_GROUP
350
1A
  3
ACAD_MLINESTYLE
350
1B
  3
ACAD_LAYOUT
350
1E
  3
ACAD_PLOTSETTINGS
350
22
  3
ACAD_PLOTSTYLENAME
350
1F
  3
ACAD_WIPEOUT_VARS
350
23
  3
ACAD_IMAGE_VARS
350
48F
  3
ACAD_IMAGE_DICT
350
490
  0
DICTIONARY
  5
1A
102
{ACAD_REACTORS
330
19
102
}
100
AcDbDictionary
280
     0
281
     1
  0
DICTIONARY
  5
1B
102
{ACAD_REACTORS
330
19
102
}
100
AcDbDictionary
280
     0
281
     1
  3
Standard
350
1C
  0
MLINESTYLE
  5
1C
102
{ACAD_REACTORS
330
1B
102
}
100
AcDbMlineStyle
  2
Standard
 70
     0
  3

 62
     0
 51
90.0
 52
90.0
 71
     2
 49
0.5
 62
   256
  6
ByLayer
 49
-0.5
 62
   256
  6
ByLayer
  0
ACDBDICTIONARYWDFLT
  5
1F
102
{ACAD_REACTORS
330
19
102
}
100
AcDbDictionary
281
     1
  3
Normal
350
1D
100
AcDbDictionaryWithDefault
340
1D
  0
ACDBPLACEHOLDER
  5
1D
102
{ACAD_REACTORS
330
1F
102
}
  0
LAYOUT
  5
20
102
{ACAD_REACTORS
330
1E
102
}
100
AcDbPlotSettings
  1

  2

  4

  6

 40
0.0
 41
0.0
 42
0.0
 43
0.0
 44
0.0
 45
0.0
 46
0.0
 47
0.0
 48
0.0
 49
0.0
140
0.0
141
0.0
142
1.0
143
1.0
 70
  1024
 72
     0
 73
     0
 74
     0
  7

 75
     0
147
1.0
148
0.0
149
0.0
100
AcDbLayout
  1
Model
 70
     0
 71
     0
 10
0.0
 20
0.0
 11
0.0
 21
0.0
 12
0.0
 22
0.0
 32
0.0
 14
0.0
 24
0.0
 34
0.0
 15
0.0
 25
0.0
 35
0.0
146
0.0
 13
0.0
 23
0.0
 33
0.0
 16
0.0
 26
0.0
 36
0.0
 17
0.0
 27
0.0
 37
0.0
 76
     0
330
A
331
0
345
0
346
0
  0
LAYOUT
  5
21
102
{ACAD_REACTORS
330
1E
102
}
100
AcDbPlotSettings
  1

  2

  4

  6

 40
0.0
 41
0.0
 42
0.0
 43
0.0
 44
0.0
 45
0.0
 46
0.0
 47
0.0
 48
0.0
 49
0.0
140
0.0
141
0.0
142
1.0
143
1.0
 70
     0
 72
     0
 73
     0
 74
     0
  7

 75
     0
147
1.0
148
0.0
149
0.0
100
AcDbLayout
  1
Layout1
 70
     0
 71
     0
 10
0.0
 20
0.0
 11
0.0
 21
0.0
 12
0.0
 22
0.0
 32
0.0
 14
0.0
 24
0.0
 34
0.0
 15
0.0
 25
0.0
 35
0.0
146
0.0
 13
0.0
 23
0.0
 33
0.0
 16
0.0
 26
0.0
 36
0.0
 17
0.0
 27
0.0
 37
0.0
 76
     0
330
B
331
0
345
0
346
0
  0
DICTIONARY
  5
1E
102
{ACAD_REACTORS
330
19
102
}
100
AcDbDictionary
280
     0
281
     1
  3
Layout1
350
21
  3
Model
350
20
  0
DICTIONARY
  5
22
102
{ACAD_REACTORS
330
19
102
}
100
AcDbDictionary
280
     0
281
     1
  0
WIPEOUTVARIABLES
  5
23
100
AcDbWipeoutVariables
 70
     1
  0
RASTERVARIABLES
  5
48F
102
{ACAD_REACTORS
330
19
102
}
100
AcDbRasterVariables
 90
        0
 70
     1
 71
     1
 72
     0
  0
DICTIONARY
  5
490
102
{ACAD_REACTORS
330
19
102
}
100
AcDbDictionary
280
     0
281
     1
  3

350
492
  0
IMAGEDEF
  5
492
102
{ACAD_REACTORS
330
490
330
491
102
}
100
AcDbRasterImageDef
 90
        0
  1
.PCX
 10
388.0
 20
1220.0
 11
0.352778
 21
0.352778
280
     1
281
     5
  0
IMAGEDEF_REACTOR
  5
491
100
AcDbRasterImageDefReactor
 90
        2
330
48E
  0
ENDSEC
  0
EOF
