  0
SECTION
  2
HEADER
  9
$ACADVER
  1
AC1015
  9
$ACADMAINTVER
 70
     6
  9
$DWGCODEPAGE
  3
ANSI_1252
  9
$INSBASE
 10
0.0
 20
0.0
 30
0.0
  9
$EXTMIN
 10
0.0
 20
0.0
 30
0.0
  9
$EXTMAX
 10
1050.0
 20
1485.0
 30
0.0
  9
$LIMMIN
 10
0.0
 20
0.0
  9
$LIMMAX
 10
420.0
 20
297.0
  9
$ORTHOMODE
 70
     0
  9
$REGENMODE
 70
     1
  9
$FILLMODE
 70
     1
  9
$QTEXTMODE
 70
     0
  9
$MIRRTEXT
 70
     1
  9
$LTSCALE
 40
1.0
  9
$ATTMODE
 70
     1
  9
$TEXTSIZE
 40
2.5
  9
$TRACEWID
 40
1.0
  9
$TEXTSTYLE
  7
Standard
  9
$CLAYER
  8
0
  9
$CELTYPE
  6
ByLayer
  9
$CECOLOR
 62
   256
  9
$CELTSCALE
 40
1.0
  9
$DISPSILH
 70
     0
  9
$DIMSCALE
 40
1.0
  9
$DIMASZ
 40
2.5
  9
$DIMEXO
 40
0.625
  9
$DIMDLI
 40
3.75
  9
$DIMRND
 40
0.0
  9
$DIMDLE
 40
0.0
  9
$DIMEXE
 40
1.25
  9
$DIMTP
 40
0.0
  9
$DIMTM
 40
0.0
  9
$DIMTXT
 40
2.5
  9
$DIMCEN
 40
2.5
  9
$DIMTSZ
 40
0.0
  9
$DIMTOL
 70
     0
  9
$DIMLIM
 70
     0
  9
$DIMTIH
 70
     0
  9
$DIMTOH
 70
     0
  9
$DIMSE1
 70
     0
  9
$DIMSE2
 70
     0
  9
$DIMTAD
 70
     1
  9
$DIMZIN
 70
     8
  9
$DIMBLK
  1

  9
$DIMASO
 70
     1
  9
$DIMSHO
 70
     1
  9
$DIMPOST
  1

  9
$DIMAPOST
  1

  9
$DIMALT
 70
     0
  9
$DIMALTD
 70
     3
  9
$DIMALTF
 40
0.03937
  9
$DIMLFAC
 40
1.0
  9
$DIMTOFL
 70
     1
  9
$DIMTVP
 40
0.0
  9
$DIMTIX
 70
     0
  9
$DIMSOXD
 70
     0
  9
$DIMSAH
 70
     0
  9
$DIMBLK1
  1

  9
$DIMBLK2
  1

  9
$DIMSTYLE
  2
ISO-25
  9
$DIMCLRD
 70
     0
  9
$DIMCLRE
 70
     0
  9
$DIMCLRT
 70
     0
  9
$DIMTFAC
 40
1.0
  9
$DIMGAP
 40
0.625
  9
$DIMJUST
 70
     0
  9
$DIMSD1
 70
     0
  9
$DIMSD2
 70
     0
  9
$DIMTOLJ
 70
     0
  9
$DIMTZIN
 70
     8
  9
$DIMALTZ
 70
     0
  9
$DIMALTTZ
 70
     0
  9
$DIMUPT
 70
     0
  9
$DIMDEC
 70
     2
  9
$DIMTDEC
 70
     2
  9
$DIMALTU
 70
     2
  9
$DIMALTTD
 70
     3
  9
$DIMTXSTY
  7
Standard
  9
$DIMAUNIT
 70
     0
  9
$DIMADEC
 70
     0
  9
$DIMALTRND
 40
0.0
  9
$DIMAZIN
 70
     0
  9
$DIMDSEP
 70
    44
  9
$DIMATFIT
 70
     3
  9
$DIMFRAC
 70
     0
  9
$DIMLDRBLK
  1

  9
$DIMLUNIT
 70
     2
  9
$DIMLWD
 70
    -2
  9
$DIMLWE
 70
    -2
  9
$DIMTMOVE
 70
     0
  9
$LUNITS
 70
     2
  9
$LUPREC
 70
     4
  9
$SKETCHINC
 40
1.0
  9
$FILLETRAD
 40
10.0
  9
$AUNITS
 70
     0
  9
$AUPREC
 70
     0
  9
$MENU
  1
.
  9
$ELEVATION
 40
0.0
  9
$PELEVATION
 40
0.0
  9
$THICKNESS
 40
0.0
  9
$LIMCHECK
 70
     0
  9
$CHAMFERA
 40
10.0
  9
$CHAMFERB
 40
10.0
  9
$CHAMFERC
 40
20.0
  9
$CHAMFERD
 40
0.0
  9
$SKPOLY
 70
     0
  9
$TDCREATE
 40
2453866.479284074
  9
$TDUCREATE
 40
2453866.395950740
  9
$TDUPDATE
 40
2454243.646534097
  9
$TDUUPDATE
 40
2454243.563200764
  9
$TDINDWG
 40
0.0004335648
  9
$TDUSRTIMER
 40
0.0004335648
  9
$USRTIMER
 70
     1
  9
$ANGBASE
 50
0.0
  9
$ANGDIR
 70
     0
  9
$PDMODE
 70
     0
  9
$PDSIZE
 40
0.0
  9
$PLINEWID
 40
0.0
  9
$SPLFRAME
 70
     0
  9
$SPLINETYPE
 70
     6
  9
$SPLINESEGS
 70
     8
  9
$HANDSEED
  5
AD
  9
$SURFTAB1
 70
     6
  9
$SURFTAB2
 70
     6
  9
$SURFTYPE
 70
     6
  9
$SURFU
 70
     6
  9
$SURFV
 70
     6
  9
$UCSBASE
  2

  9
$UCSNAME
  2

  9
$UCSORG
 10
0.0
 20
0.0
 30
0.0
  9
$UCSXDIR
 10
1.0
 20
0.0
 30
0.0
  9
$UCSYDIR
 10
0.0
 20
1.0
 30
0.0
  9
$UCSORTHOREF
  2

  9
$UCSORTHOVIEW
 70
     0
  9
$UCSORGTOP
 10
0.0
 20
0.0
 30
0.0
  9
$UCSORGBOTTOM
 10
0.0
 20
0.0
 30
0.0
  9
$UCSORGLEFT
 10
0.0
 20
0.0
 30
0.0
  9
$UCSORGRIGHT
 10
0.0
 20
0.0
 30
0.0
  9
$UCSORGFRONT
 10
0.0
 20
0.0
 30
0.0
  9
$UCSORGBACK
 10
0.0
 20
0.0
 30
0.0
  9
$PUCSBASE
  2

  9
$PUCSNAME
  2

  9
$PUCSORG
 10
0.0
 20
0.0
 30
0.0
  9
$PUCSXDIR
 10
1.0
 20
0.0
 30
0.0
  9
$PUCSYDIR
 10
0.0
 20
1.0
 30
0.0
  9
$PUCSORTHOREF
  2

  9
$PUCSORTHOVIEW
 70
     0
  9
$PUCSORGTOP
 10
0.0
 20
0.0
 30
0.0
  9
$PUCSORGBOTTOM
 10
0.0
 20
0.0
 30
0.0
  9
$PUCSORGLEFT
 10
0.0
 20
0.0
 30
0.0
  9
$PUCSORGRIGHT
 10
0.0
 20
0.0
 30
0.0
  9
$PUCSORGFRONT
 10
0.0
 20
0.0
 30
0.0
  9
$PUCSORGBACK
 10
0.0
 20
0.0
 30
0.0
  9
$USERI1
 70
     0
  9
$USERI2
 70
     0
  9
$USERI3
 70
     0
  9
$USERI4
 70
     0
  9
$USERI5
 70
     0
  9
$USERR1
 40
0.0
  9
$USERR2
 40
0.0
  9
$USERR3
 40
0.0
  9
$USERR4
 40
0.0
  9
$USERR5
 40
0.0
  9
$WORLDVIEW
 70
     1
  9
$SHADEDGE
 70
     3
  9
$SHADEDIF
 70
    70
  9
$TILEMODE
 70
     1
  9
$MAXACTVP
 70
    64
  9
$PINSBASE
 10
0.0
 20
0.0
 30
0.0
  9
$PLIMCHECK
 70
     0
  9
$PEXTMIN
 10
1.000000E+20
 20
1.000000E+20
 30
1.000000E+20
  9
$PEXTMAX
 10
-1.000000E+20
 20
-1.000000E+20
 30
-1.000000E+20
  9
$PLIMMIN
 10
0.0
 20
0.0
  9
$PLIMMAX
 10
420.0
 20
297.0
  9
$UNITMODE
 70
     0
  9
$VISRETAIN
 70
     1
  9
$PLINEGEN
 70
     0
  9
$PSLTSCALE
 70
     1
  9
$TREEDEPTH
 70
  3020
  9
$CMLSTYLE
  2
Standard
  9
$CMLJUST
 70
     0
  9
$CMLSCALE
 40
20.0
  9
$PROXYGRAPHICS
 70
     1
  9
$MEASUREMENT
 70
     1
  9
$CELWEIGHT
370
    -1
  9
$ENDCAPS
280
     0
  9
$JOINSTYLE
280
     0
  9
$LWDISPLAY
290
     0
  9
$INSUNITS
 70
     4
  9
$HYPERLINKBASE
  1

  9
$STYLESHEET
  1

  9
$XEDIT
290
     1
  9
$CEPSNTYPE
380
     0
  9
$PSTYLEMODE
290
     1
  9
$FINGERPRINTGUID
  2
{361B34AB-7CDE-40BF-AA94-934DB803392F}
  9
$VERSIONGUID
  2
{85394A65-B5A9-4BE3-9902-67C437F0A914}
  9
$EXTNAMES
290
     1
  9
$PSVPSCALE
 40
0.0
  9
$OLESTARTUP
290
     0
  0
ENDSEC
  0
SECTION
  2
CLASSES
  0
CLASS
  1
ACDBDICTIONARYWDFLT
  2
AcDbDictionaryWithDefault
  3
AutoCAD 2000
 90
        0
280
     0
281
     0
  0
CLASS
  1
ACDBPLACEHOLDER
  2
AcDbPlaceHolder
  3
AutoCAD 2000
 90
        0
280
     0
281
     0
  0
CLASS
  1
LAYOUT
  2
AcDbLayout
  3
AutoCAD 2000
 90
        0
280
     0
281
     0
  0
CLASS
  1
DICTIONARYVAR
  2
AcDbDictionaryVar
  3
AutoCAD 2000
 90
    32768
280
     0
281
     0
  0
ENDSEC
  0
SECTION
  2
TABLES
  0
TABLE
  2
VPORT
  5
9E
330
0
100
AcDbSymbolTable
 70
     2
  0
VPORT
  5
AC
330
9E
100
AcDbSymbolTableRecord
100
AcDbViewportTableRecord
  2
*Active
 70
     0
 10
0.0
 20
0.0
 11
1.0
 21
1.0
 12
244.911991
 22
148.5
 13
0.0
 23
0.0
 14
10.0
 24
10.0
 15
10.0
 25
10.0
 16
0.0
 26
0.0
 36
1.0
 17
0.0
 27
0.0
 37
0.0
 40
111.255627
 41
2.090909
 42
50.0
 43
0.0
 44
0.0
 50
0.0
 51
0.0
 71
     0
 72
   100
 73
     1
 74
     3
 75
     0
 76
     0
 77
     0
 78
     0
281
     0
 65
     1
110
0.0
120
0.0
130
0.0
111
1.0
121
0.0
131
0.0
112
0.0
122
1.0
132
0.0
 79
     0
146
0.0
  0
ENDTAB
  0
TABLE
  2
LTYPE
  5
99
330
0
100
AcDbSymbolTable
 70
     3
  0
LTYPE
  5
9A
330
99
100
AcDbSymbolTableRecord
100
AcDbLinetypeTableRecord
  2
ByBlock
 70
     0
  3

 72
    65
 73
     0
 40
0.0
  0
LTYPE
  5
9B
330
99
100
AcDbSymbolTableRecord
100
AcDbLinetypeTableRecord
  2
ByLayer
 70
     0
  3

 72
    65
 73
     0
 40
0.0
  0
LTYPE
  5
8
330
99
100
AcDbSymbolTableRecord
100
AcDbLinetypeTableRecord
  2
Continuous
 70
     0
  3
Solid line
 72
    65
 73
     0
 40
0.0
  0
LTYPE
  5
49
330
99
100
AcDbSymbolTableRecord
100
AcDbLinetypeTableRecord
  2
DASHDOT2
 70
     0
  3
Dash dot (.5x) _._._._._._._._._._._._._._._.
 72
    65
 73
     4
 40
12.7
 49
6.35
 74
     0
 49
-3.175
 74
     0
 49
0.0
 74
     0
 49
-3.175
 74
     0
  0
LTYPE
  5
39
330
99
100
AcDbSymbolTableRecord
100
AcDbLinetypeTableRecord
  2
DASHED2
 70
     0
  3
Dashed (.5x) _ _ _ _ _ _ _ _ _ _ _ _ _ _ _ _ _
 72
    65
 73
     2
 40
9.525
 49
6.35
 74
     0
 49
-3.175
 74
     0
  0
ENDTAB
  0
TABLE
  2
LAYER
  5
95
330
0
100
AcDbSymbolTable
 70
     6
  0
LAYER
  5
11
330
95
100
AcDbSymbolTableRecord
100
AcDbLayerTableRecord
  2
0
 70
     0
 62
     7
  6
Continuous
370
    -3
390
5
  0
LAYER
  5
4
330
95
100
AcDbSymbolTableRecord
100
AcDbLayerTableRecord
  2
A--L1---
 70
     0
 62
     7
  6
Continuous
370
    -3
390
5
  0
LAYER
  5
1A
330
95
100
AcDbSymbolTableRecord
100
AcDbLayerTableRecord
  2
A--T108-
 70
     0
 62
     7
  6
Continuous
370
    -3
390
5
  0
LAYER
  5
85
330
95
100
AcDbSymbolTableRecord
100
AcDbLayerTableRecord
  2
A--L107-
 70
     0
 62
     7
  6
Continuous
370
    -3
390
5
  0
LAYER
  5
88
330
95
100
AcDbSymbolTableRecord
100
AcDbLayerTableRecord
  2
A--T1---
 70
     0
 62
     7
  6
Continuous
370
    -3
390
5
  0
LAYER
  5
8B
330
95
100
AcDbSymbolTableRecord
100
AcDbLayerTableRecord
  2
A--L98--
 70
     0
 62
     7
  6
Continuous
370
    -3
390
5
  0
ENDTAB
  0
TABLE
  2
STYLE
  5
96
330
0
100
AcDbSymbolTable
 70
     3
  0
STYLE
  5
97
330
96
100
AcDbSymbolTableRecord
100
AcDbTextStyleTableRecord
  2
Standard
 70
     0
 40
0.0
 41
1.0
 50
0.0
 71
     0
 42
2.5
  3
txt
  4

  0
STYLE
  5
1B
330
96
100
AcDbSymbolTableRecord
100
AcDbTextStyleTableRecord
  2
TSA-0_18
 70
     0
 40
0.0
 41
1.0
 50
0.0
 71
     0
 42
2.5
  3
TXT.SHX
  4

  0
STYLE
  5
89
330
96
100
AcDbSymbolTableRecord
100
AcDbTextStyleTableRecord
  2
TSA-7
 70
     0
 40
0.0
 41
1.0
 50
0.0
 71
     0
 42
2.5
  3
TXT.SHX
  4

  0
ENDTAB
  0
TABLE
  2
VIEW
  5
9C
330
0
100
AcDbSymbolTable
 70
     0
  0
ENDTAB
  0
TABLE
  2
UCS
  5
9D
330
0
100
AcDbSymbolTable
 70
     0
  0
ENDTAB
  0
TABLE
  2
APPID
  5
A0
330
0
100
AcDbSymbolTable
 70
     2
  0
APPID
  5
A1
330
A0
100
AcDbSymbolTableRecord
100
AcDbRegAppTableRecord
  2
ACAD
 70
     0
  0
APPID
  5
D
330
A0
100
AcDbSymbolTableRecord
100
AcDbRegAppTableRecord
  2
TSA_
 70
     0
  0
ENDTAB
  0
TABLE
  2
DIMSTYLE
  5
A2
330
0
100
AcDbSymbolTable
 70
     1
100
AcDbDimStyleTable
 71
     0
  0
DIMSTYLE
105
A8
330
A2
100
AcDbSymbolTableRecord
100
AcDbDimStyleTableRecord
  2
ISO-25
 70
     0
 41
2.5
 42
0.625
 43
3.75
 44
1.25
 73
     0
 74
     0
 77
     1
 78
     8
140
2.5
141
2.5
143
0.03937
147
0.625
171
     3
172
     1
271
     2
272
     2
274
     3
278
    44
283
     0
284
     8
340
97
  0
ENDTAB
  0
TABLE
  2
BLOCK_RECORD
  5
1
330
0
100
AcDbSymbolTable
 70
     4
  0
BLOCK_RECORD
  5
2
330
1
100
AcDbSymbolTableRecord
100
AcDbBlockTableRecord
  2
*Model_Space
340
8F
  0
BLOCK_RECORD
  5
91
330
1
100
AcDbSymbolTableRecord
100
AcDbBlockTableRecord
  2
*Paper_Space
340
94
  0
BLOCK_RECORD
  5
9
330
1
100
AcDbSymbolTableRecord
100
AcDbBlockTableRecord
  2
BDET1-306$2
340
0
102
{BLKREFS
331
3
102
}
  0
BLOCK_RECORD
  5
B
330
1
100
AcDbSymbolTableRecord
100
AcDbBlockTableRecord
  2
BBOLBENAM$2
340
0
102
{BLKREFS
331
A
331
16
331
17
331
18
331
2D
102
}
  0
BLOCK_RECORD
  5
F
330
1
100
AcDbSymbolTableRecord
100
AcDbBlockTableRecord
  2
B2DUM$2
340
0
102
{BLKREFS
331
E
331
2F
331
33
331
36
331
3C
331
40
331
43
331
46
331
4D
331
50
331
53
331
5D
331
61
331
65
331
69
331
6D
331
71
331
75
331
78
331
7B
331
7F
102
}
  0
BLOCK_RECORD
  5
21
330
1
100
AcDbSymbolTableRecord
100
AcDbBlockTableRecord
  2
BSCHROEF$2
340
0
102
{BLKREFS
331
20
331
25
102
}
  0
ENDTAB
  0
ENDSEC
  0
SECTION
  2
BLOCKS
  0
BLOCK
  5
8D
330
2
100
AcDbEntity
  8
0
100
AcDbBlockBegin
  2
*Model_Space
 70
     0
 10
0.0
 20
0.0
 30
0.0
  3
*Model_Space
  1

  0
ENDBLK
  5
8E
330
2
100
AcDbEntity
  8
0
100
AcDbBlockEnd
  0
BLOCK
  5
92
330
91
100
AcDbEntity
 67
     1
  8
0
100
AcDbBlockBegin
  2
*Paper_Space
 70
     0
 10
0.0
 20
0.0
 30
0.0
  3
*Paper_Space
  1

  0
ENDBLK
  5
93
330
91
100
AcDbEntity
 67
     1
  8
0
100
AcDbBlockEnd
  0
BLOCK
  5
82
330
9
100
AcDbEntity
  8
0
100
AcDbBlockBegin
  2
BDET1-306$2
 70
     0
 10
0.0
 20
0.0
 30
0.0
  3
BDET1-306$2
  1

  0
INSERT
  5
A
330
9
100
AcDbEntity
  8
A--L1---
100
AcDbBlockReference
  2
BBOLBENAM$2
 10
20.0
 20
207.5
 30
0.0
1001
TSA_
1071
        1
1071
       -1
1071
        2
1071
      255
1071
        0
1004

1040
0.0
  0
INSERT
  5
16
330
9
100
AcDbEntity
  8
A--L1---
100
AcDbBlockReference
  2
BBOLBENAM$2
 10
20.0
 20
144.0
 30
0.0
1001
TSA_
1071
        1
1071
       -1
1071
        2
1071
      255
1071
        0
1004

1040
0.0
  0
INSERT
  5
17
330
9
100
AcDbEntity
  8
A--L1---
100
AcDbBlockReference
  2
BBOLBENAM$2
 10
20.0
 20
126.0
 30
0.0
1001
TSA_
1071
        1
1071
       -1
1071
        2
1071
      255
1071
        0
1004

1040
0.0
  0
INSERT
  5
18
330
9
100
AcDbEntity
  8
A--L1---
100
AcDbBlockReference
  2
BBOLBENAM$2
 10
20.0
 20
104.0
 30
0.0
1001
TSA_
1071
        1
1071
       -1
1071
        2
1071
      255
1071
        0
1004

1040
0.0
  0
TEXT
  5
19
330
9
100
AcDbEntity
  8
A--T108-
 62
     1
100
AcDbText
 10
25.0
 20
50.0
 30
0.0
 40
3.6
  1
ISOLATIE
  7
TSA-0_18
100
AcDbText
1001
TSA_
1071
        1
1071
       -1
1071
        6
1071
       97
1071
        0
1004

1040
0.0
1071
       72
  0
TEXT
  5
1C
330
9
100
AcDbEntity
  8
A--T108-
 62
     1
100
AcDbText
 10
25.0
 20
35.0
 30
0.0
 40
3.6
  1
DAMPDOORLATENDE FOLIE
  7
TSA-0_18
100
AcDbText
1001
TSA_
1071
        1
1071
       -1
1071
        6
1071
       97
1071
        0
1004

1040
0.0
1071
       72
  0
TEXT
  5
1D
330
9
100
AcDbEntity
  8
A--T108-
 62
     1
100
AcDbText
 10
25.0
 20
20.0
 30
0.0
 40
3.6
  1
GEVENTILEERDE SPOUW
  7
TSA-0_18
100
AcDbText
1001
TSA_
1071
        1
1071
       -1
1071
        6
1071
       97
1071
        0
1004

1040
0.0
1071
       72
  0
TEXT
  5
1E
330
9
100
AcDbEntity
  8
A--T108-
 62
     1
100
AcDbText
 10
25.0
 20
5.0
 30
0.0
 40
3.6
  1
ROCKPANELSTROOK
  7
TSA-0_18
100
AcDbText
1001
TSA_
1071
        1
1071
       -1
1071
        6
1071
       97
1071
        0
1004

1040
0.0
1071
       72
  0
TEXT
  5
1F
330
9
100
AcDbEntity
  8
A--T108-
 62
     1
100
AcDbText
 10
25.0
 20
65.0
 30
0.0
 40
3.6
  1
STELRUIMTE 10MM
  7
TSA-0_18
100
AcDbText
1001
TSA_
1071
        1
1071
       -1
1071
        6
1071
       97
1071
        0
1004

1040
0.0
1071
       72
  0
INSERT
  5
20
330
9
100
AcDbEntity
  8
A--L1---
100
AcDbBlockReference
  2
BSCHROEF$2
 10
270.0
 20
100.0
 30
0.0
 50
90.0
1001
TSA_
1071
        1
1071
       -1
1071
        2
1071
      255
1071
        0
1004

1040
0.0
  0
INSERT
  5
25
330
9
100
AcDbEntity
  8
A--L1---
100
AcDbBlockReference
  2
BSCHROEF$2
 10
316.0
 20
128.0
 30
0.0
 50
180.0
1001
TSA_
1071
        1
1071
       -1
1071
        2
1071
      255
1071
        0
1004

1040
0.0
  0
TEXT
  5
26
330
9
100
AcDbEntity
  8
A--T108-
 62
     1
100
AcDbText
 10
370.0
 20
395.0
 30
0.0
 40
3.6
  1
PUR-SCHUIM
 50
180.0
  7
TSA-0_18
 71
     6
100
AcDbText
1001
TSA_
1071
        1
1071
       -1
1071
        6
1071
       97
1071
        0
1004

1040
0.0
1071
       72
  0
TEXT
  5
27
330
9
100
AcDbEntity
  8
A--T108-
 62
     1
100
AcDbText
 10
370.0
 20
430.0
 30
0.0
 40
3.6
  1
FRAME WERK
 50
180.0
  7
TSA-0_18
 71
     6
100
AcDbText
1001
TSA_
1071
        1
1071
       -1
1071
        6
1071
       97
1071
        0
1004

1040
0.0
1071
       72
  0
TEXT
  5
28
330
9
100
AcDbEntity
  8
A--T108-
 62
     1
100
AcDbText
 10
350.0
 20
110.0
 30
0.0
 40
3.6
  1
REGELWERK 34X70MM
  7
TSA-0_18
100
AcDbText
1001
TSA_
1071
        1
1071
       -1
1071
        6
1071
       97
1071
        0
1004

1040
0.0
1071
       72
  0
TEXT
  5
29
330
9
100
AcDbEntity
  8
A--T108-
 62
     1
100
AcDbText
 10
350.0
 20
95.0
 30
0.0
 40
3.6
  1
EPDM-VOEGBAND
  7
TSA-0_18
100
AcDbText
1001
TSA_
1071
        1
1071
       -1
1071
        6
1071
       97
1071
        0
1004

1040
0.0
1071
       72
  0
TEXT
  5
2A
330
9
100
AcDbEntity
  8
A--T108-
 62
     1
100
AcDbText
 10
350.0
 20
80.0
 30
0.0
 40
3.6
  1
ROCKPANELPROFIEL TYPE H
  7
TSA-0_18
100
AcDbText
1001
TSA_
1071
        1
1071
       -1
1071
        6
1071
       97
1071
        0
1004

1040
0.0
1071
       72
  0
TEXT
  5
2B
330
9
100
AcDbEntity
  8
A--T108-
 62
     1
100
AcDbText
 10
450.0
 20
35.0
 30
0.0
 40
3.6
  1
ROCKPANEL SCHROEF
 50
180.0
  7
TSA-0_18
 71
     6
100
AcDbText
1001
TSA_
1071
        1
1071
       -1
1071
        6
1071
       97
1071
        0
1004

1040
0.0
1071
       72
  0
TEXT
  5
2C
330
9
100
AcDbEntity
  8
A--T108-
 62
     1
100
AcDbText
 10
475.0
 20
175.0
 30
0.0
 40
3.6
  1
HOEKPROFIEL^MROCKPANEL TYPE F
 50
180.0
  7
TSA-0_18
 71
     6
100
AcDbText
1001
TSA_
1071
        1
1071
       -1
1071
        6
1071
       97
1071
        0
1004

1040
0.0
1071
       72
  0
INSERT
  5
2D
330
9
100
AcDbEntity
  8
A--L1---
100
AcDbBlockReference
  2
BBOLBENAM$2
 10
307.0
 20
120.0
 30
0.0
1001
TSA_
1071
        1
1071
       -1
1071
        2
1071
      255
1071
        0
1004

1040
0.0
  0
HATCH
  5
2E
330
9
100
AcDbEntity
  8
A--L1---
 62
     5
100
AcDbHatch
 10
0.0
 20
0.0
 30
0.0
210
0.0
220
0.0
230
1.0
  2
ANSI31
 70
     0
 71
     0
 91
        1
 92
        1
 93
        4
 72
     1
 10
210.0
 20
145.0
 11
210.0
 21
270.0
 72
     1
 10
210.0
 20
270.0
 11
260.0
 21
270.0
 72
     1
 10
260.0
 20
270.0
 11
260.0
 21
145.0
 72
     1
 10
260.0
 20
145.0
 11
210.0
 21
145.0
 97
        0
 75
     0
 76
     1
 52
90.00001494311726
 41
10.0
 77
     0
 78
     1
 53
135.0000149431172
 43
0.0
 44
0.0
 45
-22.45063444739702
 46
-22.4506461579472
 79
     0
 98
        1
 10
210.0
 20
145.0
1001
TSA_
1071
        1
1071
       -1
1071
        9
1071
      121
1071
        0
1004

1040
0.0
1071
       49
  0
INSERT
  5
2F
330
9
100
AcDbEntity
  8
A--L1---
100
AcDbBlockReference
  2
B2DUM$2
 10
210.0
 20
145.0
 30
0.0
  0
LWPOLYLINE
  5
30
330
9
100
AcDbEntity
  8
A--L1---
  6
Continuous
 62
     2
 48
400.0
100
AcDbPolyline
 90
        4
 70
     1
 43
0.0
 10
210.0
 20
145.0
 10
210.0
 20
270.0
 10
260.0
 20
270.0
 10
260.0
 20
145.0
1001
TSA_
1071
        1
1071
       -1
1071
        8
1071
       97
1071
        0
1004

1040
0.0
1071
        2
  0
HATCH
  5
31
330
9
100
AcDbEntity
  8
A--L1---
 62
     5
100
AcDbHatch
 10
0.0
 20
0.0
 30
0.0
210
0.0
220
0.0
230
1.0
  2
ANSI31
 70
     0
 71
     0
 91
        1
 92
        1
 93
        4
 72
     1
 10
0.0
 20
270.0
 11
210.0
 21
270.0
 72
     1
 10
210.0
 20
270.0
 11
210.0
 21
145.0
 72
     1
 10
210.0
 20
145.0
 11
0.0
 21
145.0
 72
     1
 10
0.0
 20
145.0
 11
0.0
 21
270.0
 97
        0
 75
     0
 76
     1
 52
0.0
 41
13.33333333333333
 77
     0
 78
     1
 53
45.0
 43
0.0
 44
0.0
 45
-29.9341870702305
 46
29.93418707023051
 79
     0
 98
        1
 10
0.0
 20
270.0
1001
TSA_
1071
        1
1071
       -1
1071
        9
1071
      121
1071
        0
1004

1040
0.0
1071
       13
  0
HATCH
  5
32
330
9
100
AcDbEntity
  8
A--L1---
 62
     5
100
AcDbHatch
 10
0.0
 20
0.0
 30
0.0
210
0.0
220
0.0
230
1.0
  2
ANSI31
 70
     0
 71
     0
 91
        1
 92
        1
 93
        4
 72
     1
 10
0.0
 20
270.0
 11
210.0
 21
270.0
 72
     1
 10
210.0
 20
270.0
 11
210.0
 21
145.0
 72
     1
 10
210.0
 20
145.0
 11
0.0
 21
145.0
 72
     1
 10
0.0
 20
145.0
 11
0.0
 21
270.0
 97
        0
 75
     0
 76
     1
 52
90.00001494311726
 41
13.33333333333333
 77
     0
 78
     1
 53
135.0000149431172
 43
0.0
 44
0.0
 45
-29.93417926319604
 46
-29.93419487726294
 79
     0
 98
        1
 10
0.0
 20
270.0
1001
TSA_
1071
        1
1071
       -1
1071
        9
1071
      121
1071
        0
1004

1040
0.0
1071
       20
  0
INSERT
  5
33
330
9
100
AcDbEntity
  8
A--L1---
100
AcDbBlockReference
  2
B2DUM$2
 10
0.0
 20
270.0
 30
0.0
  0
LWPOLYLINE
  5
34
330
9
100
AcDbEntity
  8
A--L1---
  6
Continuous
 62
     1
 48
400.0
100
AcDbPolyline
 90
        4
 70
     0
 43
0.0
 10
0.0
 20
270.0
 10
210.0
 20
270.0
 10
210.0
 20
145.0
 10
0.0
 20
145.0
1001
TSA_
1071
        1
1071
       -1
1071
        8
1071
      121
1071
        0
1004

1040
0.0
1071
       10
  0
HATCH
  5
35
330
9
100
AcDbEntity
  8
A--L1---
 62
     5
100
AcDbHatch
 10
0.0
 20
0.0
 30
0.0
210
0.0
220
0.0
230
1.0
  2
ANSI31
 70
     0
 71
     0
 91
        1
 92
        1
 93
        4
 72
     1
 10
235.0
 20
111.0
 11
235.0
 21
145.0
 72
     1
 10
235.0
 20
145.0
 11
305.0
 21
145.0
 72
     1
 10
305.0
 20
145.0
 11
305.0
 21
111.0
 72
     1
 10
305.0
 20
111.0
 11
235.0
 21
111.0
 97
        0
 75
     0
 76
     1
 52
90.00001494311726
 41
10.0
 77
     0
 78
     1
 53
135.0000149431172
 43
0.0
 44
0.0
 45
-22.45063444739702
 46
-22.4506461579472
 79
     0
 98
        1
 10
235.0
 20
111.0
1001
TSA_
1071
        1
1071
       -1
1071
        9
1071
      121
1071
        0
1004

1040
0.0
1071
       49
  0
INSERT
  5
36
330
9
100
AcDbEntity
  8
A--L1---
100
AcDbBlockReference
  2
B2DUM$2
 10
235.0
 20
111.0
 30
0.0
  0
LWPOLYLINE
  5
37
330
9
100
AcDbEntity
  8
A--L1---
  6
Continuous
 62
     2
 48
400.0
100
AcDbPolyline
 90
        4
 70
     1
 43
0.0
 10
235.0
 20
111.0
 10
235.0
 20
145.0
 10
305.0
 20
145.0
 10
305.0
 20
111.0
1001
TSA_
1071
        1
1071
       -1
1071
        8
1071
       97
1071
        0
1004

1040
0.0
1071
        2
  0
LWPOLYLINE
  5
38
330
9
100
AcDbEntity
  8
A--L1---
  6
DASHED2
 62
     2
 48
400.0
100
AcDbPolyline
 90
        2
 70
     0
 43
0.0
 10
260.0
 20
144.0
 10
0.0
 20
144.0
1001
TSA_
1071
        1
1071
       -1
1071
        8
1071
      113
1071
        0
1004

1040
0.0
1071
       17
  0
HATCH
  5
3A
330
9
100
AcDbEntity
  8
A--L1---
 62
     5
100
AcDbHatch
 10
0.0
 20
0.0
 30
0.0
210
0.0
220
0.0
230
1.0
  2
ANSI31
 70
     0
 71
     0
 91
        1
 92
        1
 93
        6
 72
     1
 10
305.0
 20
111.0
 11
305.0
 21
143.0
 72
     1
 10
305.0
 20
143.0
 11
308.0
 21
143.0
 72
     1
 10
308.0
 20
143.0
 11
308.0
 21
107.971435546875
 72
     1
 10
308.0
 20
107.971435546875
 11
255.0
 21
108.0
 72
     1
 10
255.0
 20
108.0
 11
255.0
 21
111.0
 72
     1
 10
255.0
 20
111.0
 11
305.0
 21
111.0
 97
        0
 75
     0
 76
     1
 52
135.0000224146759
 41
1.0
 77
     0
 78
     1
 53
180.0000224146759
 43
0.0
 44
0.0
 45
0.0000012420914164
 46
-3.174999999999756
 79
     0
 98
        1
 10
305.0
 20
111.0
1001
TSA_
1071
        1
1071
       -1
1071
        9
1071
       97
1071
        0
1004

1040
0.0
1071
       71
  0
HATCH
  5
3B
330
9
100
AcDbEntity
  8
A--L1---
 62
     5
100
AcDbHatch
 10
0.0
 20
0.0
 30
0.0
210
0.0
220
0.0
230
1.0
  2
ANSI31
 70
     0
 71
     0
 91
        1
 92
        1
 93
        6
 72
     1
 10
305.0
 20
111.0
 11
305.0
 21
143.0
 72
     1
 10
305.0
 20
143.0
 11
308.0
 21
143.0
 72
     1
 10
308.0
 20
143.0
 11
308.0
 21
107.971435546875
 72
     1
 10
308.0
 20
107.971435546875
 11
255.0
 21
108.0
 72
     1
 10
255.0
 20
108.0
 11
255.0
 21
111.0
 72
     1
 10
255.0
 20
111.0
 11
305.0
 21
111.0
 97
        0
 75
     0
 76
     1
 52
45.00000747155863
 41
1.0
 77
     0
 78
     1
 53
90.00000747155864
 43
0.0
 44
0.0
 45
-3.174999999999972
 46
-0.0000004140304721
 79
     0
 98
        1
 10
305.0
 20
111.0
1001
TSA_
1071
        1
1071
       -1
1071
        9
1071
       97
1071
        0
1004

1040
0.0
1071
       76
  0
INSERT
  5
3C
330
9
100
AcDbEntity
  8
A--L1---
100
AcDbBlockReference
  2
B2DUM$2
 10
305.0
 20
111.0
 30
0.0
  0
LWPOLYLINE
  5
3D
330
9
100
AcDbEntity
  8
A--L1---
  6
Continuous
 62
     1
 48
400.0
100
AcDbPolyline
 90
        6
 70
     1
 43
0.0
 10
305.0
 20
111.0
 10
305.0
 20
143.0
 10
308.0
 20
143.0
 10
308.0
 20
107.971436
 10
255.0
 20
108.0
 10
255.0
 20
111.0
1001
TSA_
1071
        1
1071
       -1
1071
        8
1071
       97
1071
        0
1004

1040
0.0
1071
       10
  0
HATCH
  5
3E
330
9
100
AcDbEntity
  8
A--L1---
 62
     5
100
AcDbHatch
 10
0.0
 20
0.0
 30
0.0
210
0.0
220
0.0
230
1.0
  2
ANSI31
 70
     0
 71
     0
 91
        1
 92
        1
 93
       10
 72
     1
 10
317.0
 20
216.0
 11
317.0
 21
236.0
 72
     1
 10
317.0
 20
236.0
 11
327.0
 21
236.0
 72
     1
 10
327.0
 20
236.0
 11
327.0
 21
275.0
 72
     1
 10
327.0
 20
275.0
 11
317.0
 21
275.0
 72
     1
 10
317.0
 20
275.0
 11
317.0
 21
330.0
 72
     1
 10
317.0
 20
330.0
 11
367.0
 21
330.0
 72
     1
 10
367.0
 20
330.0
 11
367.0
 21
279.0
 72
     1
 10
367.0
 20
279.0
 11
384.0
 21
279.0
 72
     1
 10
384.0
 20
279.0
 11
384.0
 21
216.0
 72
     1
 10
384.0
 20
216.0
 11
317.0
 21
216.0
 97
        0
 75
     0
 76
     1
 52
90.00001494311726
 41
10.0
 77
     0
 78
     1
 53
135.0000149431172
 43
0.0
 44
0.0
 45
-22.45063444739702
 46
-22.4506461579472
 79
     0
 98
        1
 10
317.0
 20
216.0
1001
TSA_
1071
        1
1071
       -1
1071
        9
1071
      121
1071
        0
1004

1040
0.0
1071
       49
  0
HATCH
  5
3F
330
9
100
AcDbEntity
  8
A--L1---
 62
     5
100
AcDbHatch
 10
0.0
 20
0.0
 30
0.0
210
0.0
220
0.0
230
1.0
  2
ANSI31
 70
     0
 71
     0
 91
        1
 92
        1
 93
       10
 72
     1
 10
317.0
 20
216.0
 11
317.0
 21
236.0
 72
     1
 10
317.0
 20
236.0
 11
327.0
 21
236.0
 72
     1
 10
327.0
 20
236.0
 11
327.0
 21
275.0
 72
     1
 10
327.0
 20
275.0
 11
317.0
 21
275.0
 72
     1
 10
317.0
 20
275.0
 11
317.0
 21
330.0
 72
     1
 10
317.0
 20
330.0
 11
367.0
 21
330.0
 72
     1
 10
367.0
 20
330.0
 11
367.0
 21
279.0
 72
     1
 10
367.0
 20
279.0
 11
384.0
 21
279.0
 72
     1
 10
384.0
 20
279.0
 11
384.0
 21
216.0
 72
     1
 10
384.0
 20
216.0
 11
317.0
 21
216.0
 97
        0
 75
     0
 76
     1
 52
0.0
 41
10.0
 77
     0
 78
     1
 53
45.0
 43
0.0
 44
0.0
 45
-22.45064030267287
 46
22.45064030267288
 79
     0
 98
        1
 10
317.0
 20
216.0
1001
TSA_
1071
        1
1071
       -1
1071
        9
1071
      121
1071
        0
1004

1040
0.0
1071
       26
  0
INSERT
  5
40
330
9
100
AcDbEntity
  8
A--L1---
100
AcDbBlockReference
  2
B2DUM$2
 10
317.0
 20
216.0
 30
0.0
  0
LWPOLYLINE
  5
41
330
9
100
AcDbEntity
  8
A--L1---
  6
Continuous
 62
     2
 48
400.0
100
AcDbPolyline
 90
       10
 70
     1
 43
0.0
 10
317.0
 20
216.0
 10
317.0
 20
236.0
 10
327.0
 20
236.0
 10
327.0
 20
275.0
 10
317.0
 20
275.0
 10
317.0
 20
330.0
 10
367.0
 20
330.0
 10
367.0
 20
279.0
 10
384.0
 20
279.0
 10
384.0
 20
216.0
1001
TSA_
1071
        1
1071
       -1
1071
        8
1071
       97
1071
        0
1004

1040
0.0
1071
        2
  0
HATCH
  5
42
330
9
100
AcDbEntity
  8
A--L1---
 62
     3
100
AcDbHatch
 10
0.0
 20
0.0
 30
0.0
210
0.0
220
0.0
230
1.0
  2
SOLID
 70
     1
 71
     0
 91
        1
 92
        1
 93
        8
 72
     1
 10
307.0
 20
81.0
 11
307.0
 21
135.0
 72
     1
 10
307.0
 20
135.0
 11
308.0
 21
135.0
 72
     1
 10
308.0
 20
135.0
 11
308.0
 21
82.0
 72
     1
 10
308.0
 20
82.0
 11
316.5
 21
82.0
 72
     1
 10
316.5
 20
82.0
 11
316.5
 21
93.0
 72
     1
 10
316.5
 20
93.0
 11
317.5
 21
93.0
 72
     1
 10
317.5
 20
93.0
 11
317.5
 21
81.0
 72
     1
 10
317.5
 20
81.0
 11
307.0
 21
81.0
 97
        0
 75
     0
 76
     1
 98
        1
 10
307.0
 20
81.0
1001
TSA_
1071
        1
1071
       -1
1071
        9
1071
      113
1071
        0
1004

1040
0.0
1071
       11
  0
INSERT
  5
43
330
9
100
AcDbEntity
  8
A--L1---
100
AcDbBlockReference
  2
B2DUM$2
 10
307.0
 20
81.0
 30
0.0
  0
LWPOLYLINE
  5
44
330
9
100
AcDbEntity
  8
A--L1---
  6
Continuous
 62
     1
 48
400.0
100
AcDbPolyline
 90
        8
 70
     1
 43
0.0
 10
307.0
 20
81.0
 10
307.0
 20
135.0
 10
308.0
 20
135.0
 10
308.0
 20
82.0
 10
316.5
 20
82.0
 10
316.5
 20
93.0
 10
317.5
 20
93.0
 10
317.5
 20
81.0
1001
TSA_
1071
        1
1071
       -1
1071
        8
1071
      125
1071
        0
1004

1040
0.0
1071
       10
  0
HATCH
  5
45
330
9
100
AcDbEntity
  8
A--L1---
 62
     3
100
AcDbHatch
 10
0.0
 20
0.0
 30
0.0
210
0.0
220
0.0
230
1.0
  2
SOLID
 70
     1
 71
     0
 91
        1
 92
        1
 93
       10
 72
     1
 10
295.0
 20
236.0
 11
317.0
 21
236.0
 72
     1
 10
317.0
 20
236.0
 11
317.0
 21
214.0
 72
     1
 10
317.0
 20
214.0
 11
316.0
 21
214.0
 72
     1
 10
316.0
 20
214.0
 11
316.0
 21
235.0
 72
     1
 10
316.0
 20
235.0
 11
307.5
 21
235.0
 72
     1
 10
307.5
 20
235.0
 11
307.5
 21
225.0
 72
     1
 10
307.5
 20
225.0
 11
306.4999999999999
 21
225.0
 72
     1
 10
306.4999999999999
 20
225.0
 11
306.4999999999999
 21
235.0
 72
     1
 10
306.4999999999999
 20
235.0
 11
295.0
 21
235.0
 72
     1
 10
295.0
 20
235.0
 11
295.0
 21
236.0
 97
        0
 75
     0
 76
     1
 98
        1
 10
295.0
 20
236.0
1001
TSA_
1071
        1
1071
       -1
1071
        9
1071
      113
1071
        0
1004

1040
0.0
1071
       11
  0
INSERT
  5
46
330
9
100
AcDbEntity
  8
A--L1---
100
AcDbBlockReference
  2
B2DUM$2
 10
295.0
 20
236.0
 30
0.0
  0
LWPOLYLINE
  5
47
330
9
100
AcDbEntity
  8
A--L1---
  6
Continuous
 62
     1
 48
400.0
100
AcDbPolyline
 90
       10
 70
     1
 43
0.0
 10
295.0
 20
236.0
 10
317.0
 20
236.0
 10
317.0
 20
214.0
 10
316.0
 20
214.0
 10
316.0
 20
235.0
 10
307.5
 20
235.0
 10
307.5
 20
225.0
 10
306.5
 20
225.0
 10
306.5
 20
235.0
 10
295.0
 20
235.0
1001
TSA_
1071
        1
1071
       -1
1071
        8
1071
      125
1071
        0
1004

1040
0.0
1071
       10
  0
LWPOLYLINE
  5
48
330
9
100
AcDbEntity
  8
A--L1---
  6
DASHDOT2
 62
     2
 48
400.0
100
AcDbPolyline
 90
        2
 70
     0
 43
0.0
 10
0.0
 20
405.0
 10
0.0
 20
56.0
1001
TSA_
1071
        1
1071
       -1
1071
        8
1071
      255
1071
        0
1004

1040
0.0
1071
       32
  0
LWPOLYLINE
  5
4A
330
9
100
AcDbEntity
  8
A--L1---
  6
Continuous
 62
     5
 48
400.0
100
AcDbPolyline
 90
        3
 70
     0
 43
0.0
 10
0.0
 20
81.0
 10
298.0
 20
81.0
 10
298.0
 20
100.0
1001
TSA_
1071
        1
1071
       -1
1071
        8
1071
      255
1071
        0
1004

1040
0.0
1071
        5
  0
HATCH
  5
4B
330
9
100
AcDbEntity
  8
A--L1---
 62
     5
100
AcDbHatch
 10
0.0
 20
0.0
 30
0.0
210
0.0
220
0.0
230
1.0
  2
ANSI31
 70
     0
 71
     0
 91
        1
 92
        1
 93
        4
 72
     1
 10
300.0
 20
280.0
 11
300.0
 21
275.0
 72
     1
 10
300.0
 20
275.0
 11
280.0
 21
275.0
 72
     1
 10
280.0
 20
275.0
 11
280.0
 21
280.0
 72
     1
 10
280.0
 20
280.0
 11
300.0
 21
280.0
 97
        0
 75
     0
 76
     1
 52
135.0000224146759
 41
1.0
 77
     0
 78
     1
 53
180.0000224146759
 43
0.0
 44
0.0
 45
0.0000012420914164
 46
-3.174999999999756
 79
     0
 98
        1
 10
300.0
 20
280.0
1001
TSA_
1071
        1
1071
       -1
1071
        9
1071
       97
1071
        0
1004

1040
0.0
1071
       71
  0
HATCH
  5
4C
330
9
100
AcDbEntity
  8
A--L1---
 62
     5
100
AcDbHatch
 10
0.0
 20
0.0
 30
0.0
210
0.0
220
0.0
230
1.0
  2
ANSI31
 70
     0
 71
     0
 91
        1
 92
        1
 93
        4
 72
     1
 10
300.0
 20
280.0
 11
300.0
 21
275.0
 72
     1
 10
300.0
 20
275.0
 11
280.0
 21
275.0
 72
     1
 10
280.0
 20
275.0
 11
280.0
 21
280.0
 72
     1
 10
280.0
 20
280.0
 11
300.0
 21
280.0
 97
        0
 75
     0
 76
     1
 52
45.00000747155863
 41
1.0
 77
     0
 78
     1
 53
90.00000747155864
 43
0.0
 44
0.0
 45
-3.174999999999972
 46
-0.0000004140304721
 79
     0
 98
        1
 10
300.0
 20
280.0
1001
TSA_
1071
        1
1071
       -1
1071
        9
1071
       97
1071
        0
1004

1040
0.0
1071
       76
  0
INSERT
  5
4D
330
9
100
AcDbEntity
  8
A--L1---
100
AcDbBlockReference
  2
B2DUM$2
 10
300.0
 20
280.0
 30
0.0
  0
LWPOLYLINE
  5
4E
330
9
100
AcDbEntity
  8
A--L1---
  6
Continuous
 62
     1
 48
400.0
100
AcDbPolyline
 90
        4
 70
     1
 43
0.0
 10
300.0
 20
280.0
 10
300.0
 20
275.0
 10
280.0
 20
275.0
 10
280.0
 20
280.0
1001
TSA_
1071
        1
1071
       -1
1071
        8
1071
       97
1071
        0
1004

1040
0.0
1071
       10
  0
HATCH
  5
4F
330
9
100
AcDbEntity
  8
A--L1---
 62
     5
100
AcDbHatch
 10
0.0
 20
0.0
 30
0.0
210
0.0
220
0.0
230
1.0
  2
ANSI31
 70
     0
 71
     0
 91
        1
 92
        1
 93
        4
 72
     1
 10
270.0
 20
275.0
 11
327.0
 21
275.0
 72
     1
 10
327.0
 20
275.0
 11
327.0
 21
236.0
 72
     1
 10
327.0
 20
236.0
 11
270.0
 21
236.0
 72
     1
 10
270.0
 20
236.0
 11
270.0
 21
275.0
 97
        0
 75
     0
 76
     1
 52
90.00001494311726
 41
10.0
 77
     0
 78
     1
 53
135.0000149431172
 43
0.0
 44
0.0
 45
-22.45063444739702
 46
-22.4506461579472
 79
     0
 98
        1
 10
270.0
 20
275.0
1001
TSA_
1071
        1
1071
       -1
1071
        9
1071
      121
1071
        0
1004

1040
0.0
1071
       49
  0
INSERT
  5
50
330
9
100
AcDbEntity
  8
A--L1---
100
AcDbBlockReference
  2
B2DUM$2
 10
270.0
 20
275.0
 30
0.0
  0
LWPOLYLINE
  5
51
330
9
100
AcDbEntity
  8
A--L1---
  6
Continuous
 62
     2
 48
400.0
100
AcDbPolyline
 90
        4
 70
     1
 43
0.0
 10
270.0
 20
275.0
 10
327.0
 20
275.0
 10
327.0
 20
236.0
 10
270.0
 20
236.0
1001
TSA_
1071
        1
1071
       -1
1071
        8
1071
       97
1071
        0
1004

1040
0.0
1071
        2
  0
HATCH
  5
52
330
9
100
AcDbEntity
  8
A--L1---
 62
     5
100
AcDbHatch
 10
0.0
 20
0.0
 30
0.0
210
0.0
220
0.0
230
1.0
  2
ANSI31
 70
     0
 71
     0
 91
        1
 92
        1
 93
        4
 72
     1
 10
307.0
 20
330.0
 11
307.0
 21
342.0
 72
     1
 10
307.0
 20
342.0
 11
332.0
 21
342.0
 72
     1
 10
332.0
 20
342.0
 11
332.0
 21
330.0
 72
     1
 10
332.0
 20
330.0
 11
307.0
 21
330.0
 97
        0
 75
     0
 76
     1
 52
90.00001494311726
 41
10.0
 77
     0
 78
     1
 53
135.0000149431172
 43
0.0
 44
0.0
 45
-22.45063444739702
 46
-22.4506461579472
 79
     0
 98
        1
 10
307.0
 20
330.0
1001
TSA_
1071
        1
1071
       -1
1071
        9
1071
      121
1071
        0
1004

1040
0.0
1071
       49
  0
INSERT
  5
53
330
9
100
AcDbEntity
  8
A--L1---
100
AcDbBlockReference
  2
B2DUM$2
 10
307.0
 20
330.0
 30
0.0
  0
LWPOLYLINE
  5
54
330
9
100
AcDbEntity
  8
A--L1---
  6
Continuous
 62
     2
 48
400.0
100
AcDbPolyline
 90
        4
 70
     1
 43
0.0
 10
307.0
 20
330.0
 10
307.0
 20
342.0
 10
332.0
 20
342.0
 10
332.0
 20
330.0
1001
TSA_
1071
        1
1071
       -1
1071
        8
1071
       97
1071
        0
1004

1040
0.0
1071
        2
  0
LWPOLYLINE
  5
55
330
9
100
AcDbEntity
  8
A--L1---
  6
Continuous
 62
     5
 48
400.0
100
AcDbPolyline
 90
        2
 70
     0
 43
0.0
 10
367.0
 20
330.0
 10
453.0
 20
330.0
1001
TSA_
1071
        1
1071
       -1
1071
        8
1071
      255
1071
        0
1004

1040
0.0
1071
        5
  0
LWPOLYLINE
  5
56
330
9
100
AcDbEntity
  8
A--L1---
  6
Continuous
 62
     5
 48
400.0
100
AcDbPolyline
 90
        2
 70
     0
 43
0.0
 10
384.0
 20
279.0
 10
453.0
 20
279.0
1001
TSA_
1071
        1
1071
       -1
1071
        8
1071
      255
1071
        0
1004

1040
0.0
1071
        5
  0
LWPOLYLINE
  5
57
330
9
100
AcDbEntity
  8
A--L1---
  6
Continuous
 62
     5
 48
400.0
100
AcDbPolyline
 90
        2
 70
     0
 43
0.0
 10
384.0
 20
216.0
 10
453.0
 20
216.0
1001
TSA_
1071
        1
1071
       -1
1071
        8
1071
      255
1071
        0
1004

1040
0.0
1071
        5
  0
LWPOLYLINE
  5
58
330
9
100
AcDbEntity
  8
A--L1---
  6
Continuous
 62
     5
 48
400.0
100
AcDbPolyline
 90
        2
 70
     0
 43
0.0
 10
332.0
 20
342.0
 10
453.0
 20
342.0
1001
TSA_
1071
        1
1071
       -1
1071
        8
1071
      255
1071
        0
1004

1040
0.0
1071
        5
  0
LWPOLYLINE
  5
59
330
9
100
AcDbEntity
  8
A--L1---
  6
Continuous
 62
     5
 48
400.0
100
AcDbPolyline
 90
        2
 70
     0
 43
0.0
 10
307.0
 20
380.0
 10
453.0
 20
380.0
1001
TSA_
1071
        1
1071
       -1
1071
        8
1071
      255
1071
        0
1004

1040
0.0
1071
        5
  0
LWPOLYLINE
  5
5A
330
9
100
AcDbEntity
  8
A--L1---
  6
DASHDOT2
 62
     2
 48
400.0
100
AcDbPolyline
 90
        2
 70
     0
 43
0.0
 10
453.0
 20
405.0
 10
453.0
 20
191.0
1001
TSA_
1071
        1
1071
       -1
1071
        8
1071
      255
1071
        0
1004

1040
0.0
1071
       32
  0
LWPOLYLINE
  5
5B
330
9
100
AcDbEntity
  8
A--L1---
  6
Continuous
 62
     5
 48
400.0
100
AcDbPolyline
 90
        3
 70
     0
 43
0.0
 10
20.0
 20
275.0
 10
20.0
 20
0.0
 10
210.0
 20
0.0
1001
TSA_
1071
        1
1071
       -1
1071
        8
1071
      255
1071
        0
1004

1040
0.0
1071
        5
  0
HATCH
  5
5C
330
9
100
AcDbEntity
  8
A--L1---
 62
     1
100
AcDbHatch
 10
0.0
 20
0.0
 30
0.0
210
0.0
220
0.0
230
1.0
  2
SOLID
 70
     1
 71
     0
 91
        1
 92
        1
 93
        2
 72
     2
 10
20.0
 20
275.0
 40
2.0
 50
359.9999899717977
 51
539.9999899717978
 73
     1
 72
     2
 10
20.0
 20
275.0
 40
2.0
 50
179.9999899717978
 51
359.9999899717977
 73
     1
 97
        0
 75
     0
 76
     1
 98
        1
 10
20.0
 20
275.0
1001
TSA_
1071
        1
1071
       -1
1071
        9
1071
      125
1071
        0
1004

1040
0.0
1071
       34
  0
INSERT
  5
5D
330
9
100
AcDbEntity
  8
A--L1---
100
AcDbBlockReference
  2
B2DUM$2
 10
20.0
 20
275.0
 30
0.0
  0
LWPOLYLINE
  5
5E
330
9
100
AcDbEntity
  8
A--L1---
  6
Continuous
 62
     2
 48
400.0
100
AcDbPolyline
 90
        2
 70
     1
 43
0.0
 10
22.0
 20
275.0
 42
1.0
 10
18.0
 20
275.0
 42
1.0
1001
TSA_
1071
        1
1071
       -1
1071
        8
1071
      125
1071
        0
1004

1040
0.0
1071
        7
  0
HATCH
  5
5F
330
9
100
AcDbEntity
  8
A--L1---
 62
     5
100
AcDbHatch
 10
0.0
 20
0.0
 30
0.0
210
0.0
220
0.0
230
1.0
  2
ANSI31
 70
     0
 71
     0
 91
        1
 92
        1
 93
        4
 72
     1
 10
270.0
 20
236.0
 11
260.0
 21
230.0
 72
     1
 10
260.0
 20
230.0
 11
260.0
 21
280.0
 72
     1
 10
260.0
 20
280.0
 11
270.0
 21
280.0
 72
     1
 10
270.0
 20
280.0
 11
270.0
 21
236.0
 97
        0
 75
     0
 76
     1
 52
0.0
 41
13.33333333333333
 77
     0
 78
     1
 53
45.0
 43
0.0
 44
0.0
 45
-29.9341870702305
 46
29.93418707023051
 79
     0
 98
        1
 10
270.0
 20
236.0
1001
TSA_
1071
        1
1071
       -1
1071
        9
1071
      121
1071
        0
1004

1040
0.0
1071
       13
  0
HATCH
  5
60
330
9
100
AcDbEntity
  8
A--L1---
 62
     5
100
AcDbHatch
 10
0.0
 20
0.0
 30
0.0
210
0.0
220
0.0
230
1.0
  2
ANSI31
 70
     0
 71
     0
 91
        1
 92
        1
 93
        4
 72
     1
 10
270.0
 20
236.0
 11
260.0
 21
230.0
 72
     1
 10
260.0
 20
230.0
 11
260.0
 21
280.0
 72
     1
 10
260.0
 20
280.0
 11
270.0
 21
280.0
 72
     1
 10
270.0
 20
280.0
 11
270.0
 21
236.0
 97
        0
 75
     0
 76
     1
 52
90.00001494311726
 41
13.33333333333333
 77
     0
 78
     1
 53
135.0000149431172
 43
0.0
 44
0.0
 45
-29.93417926319604
 46
-29.93419487726294
 79
     0
 98
        1
 10
270.0
 20
236.0
1001
TSA_
1071
        1
1071
       -1
1071
        9
1071
      121
1071
        0
1004

1040
0.0
1071
       20
  0
INSERT
  5
61
330
9
100
AcDbEntity
  8
A--L1---
100
AcDbBlockReference
  2
B2DUM$2
 10
270.0
 20
236.0
 30
0.0
  0
LWPOLYLINE
  5
62
330
9
100
AcDbEntity
  8
A--L1---
  6
Continuous
 62
     1
 48
400.0
100
AcDbPolyline
 90
        4
 70
     1
 43
0.0
 10
270.0
 20
236.0
 10
260.0
 20
230.0
 10
260.0
 20
280.0
 10
270.0
 20
280.0
1001
TSA_
1071
        1
1071
       -1
1071
        8
1071
      121
1071
        0
1004

1040
0.0
1071
       10
  0
LWPOLYLINE
  5
63
330
9
100
AcDbEntity
  8
A--L1---
  6
Continuous
 62
     5
 48
400.0
100
AcDbPolyline
 90
        3
 70
     0
 43
0.0
 10
265.0
 20
255.0
 10
265.0
 20
390.0
 10
370.0
 20
390.0
1001
TSA_
1071
        1
1071
       -1
1071
        8
1071
      255
1071
        0
1004

1040
0.0
1071
        5
  0
HATCH
  5
64
330
9
100
AcDbEntity
  8
A--L1---
 62
     1
100
AcDbHatch
 10
0.0
 20
0.0
 30
0.0
210
0.0
220
0.0
230
1.0
  2
SOLID
 70
     1
 71
     0
 91
        1
 92
        1
 93
        2
 72
     2
 10
265.0
 20
255.0
 40
2.0
 50
359.9999899717977
 51
539.9999899717978
 73
     1
 72
     2
 10
265.0
 20
255.0
 40
2.0
 50
179.9999899717978
 51
359.9999899717977
 73
     1
 97
        0
 75
     0
 76
     1
 98
        1
 10
265.0
 20
255.0
1001
TSA_
1071
        1
1071
       -1
1071
        9
1071
      125
1071
        0
1004

1040
0.0
1071
       34
  0
INSERT
  5
65
330
9
100
AcDbEntity
  8
A--L1---
100
AcDbBlockReference
  2
B2DUM$2
 10
265.0
 20
255.0
 30
0.0
  0
LWPOLYLINE
  5
66
330
9
100
AcDbEntity
  8
A--L1---
  6
Continuous
 62
     2
 48
400.0
100
AcDbPolyline
 90
        2
 70
     1
 43
0.0
 10
267.0
 20
255.0
 42
1.0
 10
263.0
 20
255.0
 42
1.0
1001
TSA_
1071
        1
1071
       -1
1071
        8
1071
      125
1071
        0
1004

1040
0.0
1071
        7
  0
LWPOLYLINE
  5
67
330
9
100
AcDbEntity
  8
A--L1---
  6
Continuous
 62
     5
 48
400.0
100
AcDbPolyline
 90
        3
 70
     0
 43
0.0
 10
235.0
 20
215.0
 10
235.0
 20
425.0
 10
370.0
 20
425.0
1001
TSA_
1071
        1
1071
       -1
1071
        8
1071
      255
1071
        0
1004

1040
0.0
1071
        5
  0
HATCH
  5
68
330
9
100
AcDbEntity
  8
A--L1---
 62
     1
100
AcDbHatch
 10
0.0
 20
0.0
 30
0.0
210
0.0
220
0.0
230
1.0
  2
SOLID
 70
     1
 71
     0
 91
        1
 92
        1
 93
        2
 72
     2
 10
235.0
 20
215.0
 40
2.0
 50
359.9999899717977
 51
539.9999899717978
 73
     1
 72
     2
 10
235.0
 20
215.0
 40
2.0
 50
179.9999899717978
 51
359.9999899717977
 73
     1
 97
        0
 75
     0
 76
     1
 98
        1
 10
235.0
 20
215.0
1001
TSA_
1071
        1
1071
       -1
1071
        9
1071
      125
1071
        0
1004

1040
0.0
1071
       34
  0
INSERT
  5
69
330
9
100
AcDbEntity
  8
A--L1---
100
AcDbBlockReference
  2
B2DUM$2
 10
235.0
 20
215.0
 30
0.0
  0
LWPOLYLINE
  5
6A
330
9
100
AcDbEntity
  8
A--L1---
  6
Continuous
 62
     2
 48
400.0
100
AcDbPolyline
 90
        2
 70
     1
 43
0.0
 10
237.0
 20
215.0
 42
1.0
 10
233.0
 20
215.0
 42
1.0
1001
TSA_
1071
        1
1071
       -1
1071
        8
1071
      125
1071
        0
1004

1040
0.0
1071
        7
  0
LWPOLYLINE
  5
6B
330
9
100
AcDbEntity
  8
A--L1---
  6
Continuous
 62
     5
 48
400.0
100
AcDbPolyline
 90
        3
 70
     0
 43
0.0
 10
311.75
 20
235.0
 10
330.0
 20
170.0
 10
475.0
 20
170.0
1001
TSA_
1071
        1
1071
       -1
1071
        8
1071
      255
1071
        0
1004

1040
0.0
1071
        5
  0
HATCH
  5
6C
330
9
100
AcDbEntity
  8
A--L1---
 62
     1
100
AcDbHatch
 10
0.0
 20
0.0
 30
0.0
210
0.0
220
0.0
230
1.0
  2
SOLID
 70
     1
 71
     0
 91
        1
 92
        1
 93
        2
 72
     2
 10
311.75
 20
235.0
 40
2.0
 50
359.9999899717977
 51
539.9999899717978
 73
     1
 72
     2
 10
311.75
 20
235.0
 40
2.0
 50
179.9999899717978
 51
359.9999899717977
 73
     1
 97
        0
 75
     0
 76
     1
 98
        1
 10
311.75
 20
235.0
1001
TSA_
1071
        1
1071
       -1
1071
        9
1071
      125
1071
        0
1004

1040
0.0
1071
       34
  0
INSERT
  5
6D
330
9
100
AcDbEntity
  8
A--L1---
100
AcDbBlockReference
  2
B2DUM$2
 10
311.75
 20
235.0
 30
0.0
  0
LWPOLYLINE
  5
6E
330
9
100
AcDbEntity
  8
A--L1---
  6
Continuous
 62
     2
 48
400.0
100
AcDbPolyline
 90
        2
 70
     1
 43
0.0
 10
313.75
 20
235.0
 42
1.0
 10
309.75
 20
235.0
 42
1.0
1001
TSA_
1071
        1
1071
       -1
1071
        8
1071
      125
1071
        0
1004

1040
0.0
1071
        7
  0
LWPOLYLINE
  5
6F
330
9
100
AcDbEntity
  8
A--L1---
  6
Continuous
 62
     5
 48
400.0
100
AcDbPolyline
 90
        3
 70
     0
 43
0.0
 10
290.0
 20
120.0
 10
345.0
 20
120.0
 10
345.0
 20
80.0
1001
TSA_
1071
        1
1071
       -1
1071
        8
1071
      255
1071
        0
1004

1040
0.0
1071
        5
  0
HATCH
  5
70
330
9
100
AcDbEntity
  8
A--L1---
 62
     1
100
AcDbHatch
 10
0.0
 20
0.0
 30
0.0
210
0.0
220
0.0
230
1.0
  2
SOLID
 70
     1
 71
     0
 91
        1
 92
        1
 93
        2
 72
     2
 10
290.0
 20
120.0
 40
2.0
 50
359.9999899717977
 51
539.9999899717978
 73
     1
 72
     2
 10
290.0
 20
120.0
 40
2.0
 50
179.9999899717978
 51
359.9999899717977
 73
     1
 97
        0
 75
     0
 76
     1
 98
        1
 10
290.0
 20
120.0
1001
TSA_
1071
        1
1071
       -1
1071
        9
1071
      125
1071
        0
1004

1040
0.0
1071
       34
  0
INSERT
  5
71
330
9
100
AcDbEntity
  8
A--L1---
100
AcDbBlockReference
  2
B2DUM$2
 10
290.0
 20
120.0
 30
0.0
  0
LWPOLYLINE
  5
72
330
9
100
AcDbEntity
  8
A--L1---
  6
Continuous
 62
     2
 48
400.0
100
AcDbPolyline
 90
        2
 70
     1
 43
0.0
 10
292.0
 20
120.0
 42
1.0
 10
288.0
 20
120.0
 42
1.0
1001
TSA_
1071
        1
1071
       -1
1071
        8
1071
      125
1071
        0
1004

1040
0.0
1071
        7
  0
LWPOLYLINE
  5
73
330
9
100
AcDbEntity
  8
A--L1---
  6
Continuous
 62
     5
 48
400.0
100
AcDbPolyline
 90
        3
 70
     0
 43
0.0
 10
270.0
 20
100.0
 10
270.0
 20
30.0
 10
450.0
 20
30.0
1001
TSA_
1071
        1
1071
       -1
1071
        8
1071
      255
1071
        0
1004

1040
0.0
1071
        5
  0
HATCH
  5
74
330
9
100
AcDbEntity
  8
A--L1---
 62
     1
100
AcDbHatch
 10
0.0
 20
0.0
 30
0.0
210
0.0
220
0.0
230
1.0
  2
SOLID
 70
     1
 71
     0
 91
        1
 92
        1
 93
        2
 72
     2
 10
270.0
 20
100.0
 40
2.0
 50
359.9999899717977
 51
539.9999899717978
 73
     1
 72
     2
 10
270.0
 20
100.0
 40
2.0
 50
179.9999899717978
 51
359.9999899717977
 73
     1
 97
        0
 75
     0
 76
     1
 98
        1
 10
270.0
 20
100.0
1001
TSA_
1071
        1
1071
       -1
1071
        9
1071
      125
1071
        0
1004

1040
0.0
1071
       34
  0
INSERT
  5
75
330
9
100
AcDbEntity
  8
A--L1---
100
AcDbBlockReference
  2
B2DUM$2
 10
270.0
 20
100.0
 30
0.0
  0
LWPOLYLINE
  5
76
330
9
100
AcDbEntity
  8
A--L1---
  6
Continuous
 62
     2
 48
400.0
100
AcDbPolyline
 90
        2
 70
     1
 43
0.0
 10
272.0
 20
100.0
 42
1.0
 10
268.0
 20
100.0
 42
1.0
1001
TSA_
1071
        1
1071
       -1
1071
        8
1071
      125
1071
        0
1004

1040
0.0
1071
        7
  0
HATCH
  5
77
330
9
100
AcDbEntity
  8
A--L1---
 62
     5
100
AcDbHatch
 10
0.0
 20
0.0
 30
0.0
210
0.0
220
0.0
230
1.0
  2
ANSI31
 70
     0
 71
     0
 91
        1
 92
        1
 93
        4
 72
     1
 10
0.0
 20
100.0
 11
298.0
 21
100.0
 72
     1
 10
298.0
 20
100.0
 11
298.0
 21
108.0
 72
     1
 10
298.0
 20
108.0
 11
0.0
 21
108.0
 72
     1
 10
0.0
 20
108.0
 11
0.0
 21
100.0
 97
        0
 75
     0
 76
     1
 52
45.00000747155863
 41
10.66666666666666
 77
     0
 78
     1
 53
90.00000747155864
 43
0.0
 44
0.0
 45
-33.86666666666637
 46
-0.0000044163250372
 79
     0
 98
        1
 10
0.0
 20
100.0
1001
TSA_
1071
        1
1071
       -1
1071
        9
1071
      113
1071
        0
1004

1040
0.0
1071
       29
  0
INSERT
  5
78
330
9
100
AcDbEntity
  8
A--L1---
100
AcDbBlockReference
  2
B2DUM$2
 10
0.0
 20
100.0
 30
0.0
  0
LWPOLYLINE
  5
79
330
9
100
AcDbEntity
  8
A--L1---
  6
Continuous
 62
     1
 48
400.0
100
AcDbPolyline
 90
        4
 70
     0
 43
0.0
 10
0.0
 20
100.0
 10
298.0
 20
100.0
 10
298.0
 20
108.0
 10
0.0
 20
108.0
1001
TSA_
1071
        1
1071
       -1
1071
        8
1071
      125
1071
        0
1004

1040
0.0
1071
       10
  0
HATCH
  5
7A
330
9
100
AcDbEntity
  8
A--L1---
 62
     5
100
AcDbHatch
 10
0.0
 20
0.0
 30
0.0
210
0.0
220
0.0
230
1.0
  2
ANSI31
 70
     0
 71
     0
 91
        1
 92
        1
 93
        4
 72
     1
 10
308.0
 20
82.0
 11
307.5
 21
235.0
 72
     1
 10
307.5
 20
235.0
 11
316.0
 21
235.0
 72
     1
 10
316.0
 20
235.0
 11
316.0
 21
82.0
 72
     1
 10
316.0
 20
82.0
 11
308.0
 21
82.0
 97
        0
 75
     0
 76
     1
 52
45.00000747155863
 41
10.66666666666666
 77
     0
 78
     1
 53
90.00000747155864
 43
0.0
 44
0.0
 45
-33.86666666666637
 46
-0.0000044163250372
 79
     0
 98
        1
 10
308.0
 20
82.0
1001
TSA_
1071
        1
1071
       -1
1071
        9
1071
      113
1071
        0
1004

1040
0.0
1071
       29
  0
INSERT
  5
7B
330
9
100
AcDbEntity
  8
A--L1---
100
AcDbBlockReference
  2
B2DUM$2
 10
308.0
 20
82.0
 30
0.0
  0
LWPOLYLINE
  5
7C
330
9
100
AcDbEntity
  8
A--L1---
  6
Continuous
 62
     1
 48
400.0
100
AcDbPolyline
 90
        4
 70
     1
 43
0.0
 10
308.0
 20
82.0
 10
307.5
 20
235.0
 10
316.0
 20
235.0
 10
316.0
 20
82.0
1001
TSA_
1071
        1
1071
       -1
1071
        8
1071
      125
1071
        0
1004

1040
0.0
1071
       10
  0
HATCH
  5
7D
330
9
100
AcDbEntity
  8
A--L1---
 62
     1
100
AcDbHatch
 10
0.0
 20
0.0
 30
0.0
210
0.0
220
0.0
230
1.0
  2
ANSI31
 70
     0
 71
     0
 91
        1
 92
        1
 93
        4
 72
     1
 10
0.0
 20
280.0
 11
307.0
 21
280.0
 72
     1
 10
307.0
 20
280.0
 11
307.0
 21
380.0
 72
     1
 10
307.0
 20
380.0
 11
0.0
 21
380.0
 72
     1
 10
0.0
 20
380.0
 11
0.0
 21
280.0
 97
        0
 75
     0
 76
     1
 52
0.0
 41
25.33333333333333
 77
     0
 78
     1
 53
45.0
 43
0.0
 44
0.0
 45
-56.87495543343796
 46
56.87495543343796
 79
     0
 98
        1
 10
0.0
 20
280.0
1001
TSA_
1071
        1
1071
       -1
1071
        9
1071
      125
1071
        0
1004

1040
0.0
1071
       12
  0
HATCH
  5
7E
330
9
100
AcDbEntity
  8
A--L1---
 62
     5
100
AcDbHatch
 10
0.0
 20
0.0
 30
0.0
210
0.0
220
0.0
230
1.0
  2
SOLID
 70
     1
 71
     0
 91
        1
 92
        1
 93
        4
 72
     1
 10
0.0
 20
280.0
 11
307.0
 21
280.0
 72
     1
 10
307.0
 20
280.0
 11
307.0
 21
380.0
 72
     1
 10
307.0
 20
380.0
 11
0.0
 21
380.0
 72
     1
 10
0.0
 20
380.0
 11
0.0
 21
280.0
 97
        0
 75
     0
 76
     1
 98
        1
 10
0.0
 20
280.0
1001
TSA_
1071
        1
1071
       -1
1071
        9
1071
      125
1071
        0
1004

1040
0.0
1071
       33
  0
INSERT
  5
7F
330
9
100
AcDbEntity
  8
A--L1---
100
AcDbBlockReference
  2
B2DUM$2
 10
0.0
 20
280.0
 30
0.0
  0
LWPOLYLINE
  5
80
330
9
100
AcDbEntity
  8
A--L1---
  6
Continuous
 62
     2
 48
400.0
100
AcDbPolyline
 90
        4
 70
     0
 43
0.0
 10
0.0
 20
280.0
 10
307.0
 20
280.0
 10
307.0
 20
380.0
 10
0.0
 20
380.0
1001
TSA_
1071
        1
1071
       -1
1071
        8
1071
      125
1071
        0
1004

1040
0.0
1071
        7
  0
HATCH
  5
81
330
9
100
AcDbEntity
  8
A--L1---
 62
     3
100
AcDbHatch
 10
0.0
 20
0.0
 30
0.0
210
0.0
220
0.0
230
1.0
  2
SOLID
 70
     1
 71
     0
 91
        1
 92
        1
 93
        4
 72
     1
 10
0.0
 20
280.0
 11
307.0
 21
280.0
 72
     1
 10
307.0
 20
280.0
 11
307.0
 21
380.0
 72
     1
 10
307.0
 20
380.0
 11
0.0
 21
380.0
 72
     1
 10
0.0
 20
380.0
 11
0.0
 21
280.0
 97
        0
 75
     0
 76
     1
 98
        1
 10
0.0
 20
280.0
1001
TSA_
1071
        1
1071
       -1
1071
        9
1071
      127
1071
        0
1004

1040
0.0
1071
       11
  0
ENDBLK
  5
83
330
9
100
AcDbEntity
  8
0
100
AcDbBlockEnd
  0
BLOCK
  5
14
330
B
100
AcDbEntity
  8
0
100
AcDbBlockBegin
  2
BBOLBENAM$2
 70
     0
 10
0.0
 20
0.0
 30
0.0
  3
BBOLBENAM$2
  1

  0
HATCH
  5
C
330
B
100
AcDbEntity
  8
A--L1---
 62
     1
100
AcDbHatch
 10
0.0
 20
0.0
 30
0.0
210
0.0
220
0.0
230
1.0
  2
SOLID
 70
     1
 71
     0
 91
        1
 92
        1
 93
        2
 72
     2
 10
0.0
 20
0.0
 40
2.0
 50
359.9999899717977
 51
539.9999899717978
 73
     1
 72
     2
 10
0.0
 20
0.0
 40
2.0
 50
179.9999899717978
 51
359.9999899717977
 73
     1
 97
        0
 75
     0
 76
     1
 98
        1
 10
1.999999999999969
 20
-0.0000003500502928
1001
TSA_
1071
        1
1071
       -1
1071
        9
1071
      125
1071
        0
1004

1040
0.0
1071
       34
  0
INSERT
  5
E
330
B
100
AcDbEntity
  8
A--L1---
100
AcDbBlockReference
  2
B2DUM$2
 10
2.0
 20
0.0
 30
0.0
  0
LWPOLYLINE
  5
13
330
B
100
AcDbEntity
  8
A--L1---
  6
Continuous
 62
     2
 48
400.0
100
AcDbPolyline
 90
        2
 70
     1
 43
0.0
 10
2.0
 20
0.0
 42
1.0
 10
-2.0
 20
0.0
 42
1.0
1001
TSA_
1071
        1
1071
       -1
1071
        8
1071
      125
1071
        0
1004

1040
0.0
1071
        7
  0
ENDBLK
  5
15
330
B
100
AcDbEntity
  8
0
100
AcDbBlockEnd
  0
BLOCK
  5
10
330
F
100
AcDbEntity
  8
0
100
AcDbBlockBegin
  2
B2DUM$2
 70
     0
 10
0.0
 20
0.0
 30
0.0
  3
B2DUM$2
  1

  0
ENDBLK
  5
12
330
F
100
AcDbEntity
  8
0
100
AcDbBlockEnd
  0
BLOCK
  5
23
330
21
100
AcDbEntity
  8
0
100
AcDbBlockBegin
  2
BSCHROEF$2
 70
     0
 10
0.0
 20
0.0
 30
0.0
  3
BSCHROEF$2
  1

  0
LWPOLYLINE
  5
22
330
21
100
AcDbEntity
  8
A--L1---
  6
Continuous
 62
     5
 48
400.0
100
AcDbPolyline
 90
       12
 70
     0
 43
0.0
 10
4.0
 20
2.0
 10
8.0
 20
-2.0
 10
12.0
 20
2.0
 10
16.0
 20
-2.0
 10
20.0
 20
2.0
 10
24.0
 20
-2.0
 10
28.0
 20
2.0
 10
30.0
 20
0.0
 10
0.0
 20
0.0
 10
-2.0
 20
2.5
 10
-2.0
 20
-2.5
 10
0.0
 20
0.0
1001
TSA_
1071
        1
1071
       -1
1071
        8
1071
      255
1071
        0
1004

1040
0.0
1071
        5
  0
ENDBLK
  5
24
330
21
100
AcDbEntity
  8
0
100
AcDbBlockEnd
  0
ENDSEC
  0
SECTION
  2
ENTITIES
  0
INSERT
  5
3
330
2
100
AcDbEntity
  8
A--L1---
100
AcDbBlockReference
  2
BDET1-306$2
 10
335.0
 20
607.5
 30
0.0
  0
LWPOLYLINE
  5
84
330
2
100
AcDbEntity
  8
A--L107-
  6
Continuous
 62
     1
 48
400.0
100
AcDbPolyline
 90
        2
 70
     0
 43
0.0
 10
1000.0
 20
295.0
 10
100.0
 20
295.0
1001
TSA_
1071
        1
1071
        2
1071
        8
1071
      255
1071
        0
1004

1040
0.0
1071
        1
  0
LWPOLYLINE
  5
86
330
2
100
AcDbEntity
  8
A--L107-
  6
Continuous
 62
     1
 48
400.0
100
AcDbPolyline
 90
        2
 70
     0
 43
0.0
 10
1000.0
 20
172.5
 10
100.0
 20
172.5
1001
TSA_
1071
        1
1071
        3
1071
        8
1071
      255
1071
        0
1004

1040
0.0
1071
        1
  0
TEXT
  5
87
330
2
100
AcDbEntity
  8
A--T1---
 62
     3
100
AcDbText
 10
120.0
 20
215.0
 30
0.0
 40
14.0
  1
Detail: 306
  7
TSA-7
100
AcDbText
1001
TSA_
1071
        1
1071
        4
1071
        6
1071
      127
1071
        0
1004

1040
0.0
1071
        7
  0
LWPOLYLINE
  5
8A
330
2
100
AcDbEntity
  8
A--L98--
  6
Continuous
 62
     1
 48
400.0
100
AcDbPolyline
 90
        4
 70
     1
 43
0.0
 10
0.0
 20
0.0
 10
0.0
 20
1485.0
 10
1050.0
 20
1485.0
 10
1050.0
 20
0.0
1001
TSA_
1071
        1
1071
        5
1071
        8
1071
      255
1071
        0
1004

1040
0.0
1071
        1
  0
LWPOLYLINE
  5
8C
330
2
100
AcDbEntity
  8
A--L98--
  6
Continuous
 62
     1
 48
400.0
100
AcDbPolyline
 90
        4
 70
     1
 43
0.0
 10
100.0
 20
172.5
 10
100.0
 20
1435.0
 10
1000.0
 20
1435.0
 10
1000.0
 20
172.5
1001
TSA_
1071
        1
1071
        6
1071
        8
1071
      255
1071
        0
1004

1040
0.0
1071
        1
  0
ENDSEC
  0
SECTION
  2
OBJECTS
  0
DICTIONARY
  5
7
330
0
100
AcDbDictionary
281
     1
  3
ACAD_GROUP
350
A4
  3
ACAD_LAYOUT
350
90
  3
ACAD_MLINESTYLE
350
A5
  3
ACAD_PLOTSETTINGS
350
A6
  3
ACAD_PLOTSTYLENAME
350
6
  0
DICTIONARY
  5
A4
102
{ACAD_REACTORS
330
7
102
}
330
7
100
AcDbDictionary
281
     1
  0
DICTIONARY
  5
90
102
{ACAD_REACTORS
330
7
102
}
330
7
100
AcDbDictionary
281
     1
  3
Layout1
350
94
  3
Model
350
8F
  0
DICTIONARY
  5
A5
102
{ACAD_REACTORS
330
7
102
}
330
7
100
AcDbDictionary
281
     1
  3
Standard
350
A7
  0
DICTIONARY
  5
A6
102
{ACAD_REACTORS
330
7
102
}
330
7
100
AcDbDictionary
281
     1
  0
ACDBDICTIONARYWDFLT
  5
6
102
{ACAD_REACTORS
330
7
102
}
330
7
100
AcDbDictionary
281
     1
  3
Normal
350
5
100
AcDbDictionaryWithDefault
340
5
  0
LAYOUT
  5
94
102
{ACAD_REACTORS
330
90
102
}
330
90
100
AcDbPlotSettings
  1

  2
\\AUTO\HP LaserJet 5 Programmeurs
  4

  6

 40
0.0
 41
0.0
 42
0.0
 43
0.0
 44
0.0
 45
0.0
 46
0.0
 47
0.0
 48
0.0
 49
0.0
140
0.0
141
0.0
142
1.0
143
1.0
 70
   688
 72
     0
 73
     0
 74
     5
  7
Default R14 pen assignments.ctb
 75
    16
147
1.0
148
0.0
149
0.0
100
AcDbLayout
  1
Layout1
 70
     1
 71
     1
 10
0.0
 20
0.0
 11
420.0
 21
297.0
 12
0.0
 22
0.0
 32
0.0
 14
1.000000E+20
 24
1.000000E+20
 34
1.000000E+20
 15
-1.000000E+20
 25
-1.000000E+20
 35
-1.000000E+20
146
0.0
 13
0.0
 23
0.0
 33
0.0
 16
1.0
 26
0.0
 36
0.0
 17
0.0
 27
1.0
 37
0.0
 76
     0
330
91
  0
LAYOUT
  5
8F
102
{ACAD_REACTORS
330
90
102
}
330
90
100
AcDbPlotSettings
  1

  2
\\AUTO\HP LaserJet 5 Programmeurs
  4

  6

 40
0.0
 41
0.0
 42
0.0
 43
0.0
 44
0.0
 45
0.0
 46
0.0
 47
0.0
 48
0.0
 49
0.0
140
0.0
141
0.0
142
1.0
143
1.0
 70
  1712
 72
     0
 73
     0
 74
     0
  7
Default R14 pen assignments.ctb
 75
     0
147
1.0
148
0.0
149
0.0
100
AcDbLayout
  1
Model
 70
     1
 71
     0
 10
0.0
 20
0.0
 11
12.0
 21
9.0
 12
0.0
 22
0.0
 32
0.0
 14
0.0
 24
0.0
 34
0.0
 15
0.0
 25
0.0
 35
0.0
146
0.0
 13
0.0
 23
0.0
 33
0.0
 16
1.0
 26
0.0
 36
0.0
 17
0.0
 27
1.0
 37
0.0
 76
     0
330
2
  0
MLINESTYLE
  5
A7
102
{ACAD_REACTORS
330
A5
102
}
330
A5
100
AcDbMlineStyle
  2
STANDARD
 70
     0
  3

 62
   256
 51
90.0
 52
90.0
 71
     2
 49
0.5
 62
   256
  6
BYLAYER
 49
-0.5
 62
   256
  6
BYLAYER
  0
ACDBPLACEHOLDER
  5
5
102
{ACAD_REACTORS
330
6
102
}
330
6
  0
ENDSEC
  0
EOF
